Guitaretab - guitar tabs
Song name
# A B C D E F G H I J K L M N O P Q R S T U V W X Y Z

Divlje Jagode - Turski Mars tab

vod

Riff 1
E--------------------------------------------------------|
H--------------------------------------------------------|
G--------------------------------------------------------|
D--2--2-2-2--2-2-2-2-2-2-2--2-2-2--2-2-2--2-2-2-2-2-2-2--|
A--0--0-0-0--0-0-0-0-0-0-0--0-0-0--0-0-0--0-0-0-0-0-0-0--|
E--------------------------------------------------------|

Riff 2
E-------------------------------------------------------------------|
H-------------------------------------------------------------------|
G---------5/7--\-\--------4/5--\-\--------5/7--\-\--------4/5--\-\--|
D--2--2-2-5/7--\-\-2--2-2-4/5--\-\-2--2-2-5/7--\-\-2--2-2-4/5--\-\--|
A--0--0-0----------0--0-0----------0--0-0----------0--0-0-----------|
E-------------------------------------------------------------------|

Riff 3
E----------------------------------|
H----------------------------------|
G------7777----5555----3333-2-1-2--|
D--7777----5555----3333------------|
A----------------------------------|
E----------------------------------|

Riff 4
E------------------------------------------------|
H------------------------------------------------|
G------7777----5555-----3-1/5-3/7-*------------|
D--7777----5555----3333-3---------------------2--|
A-------------------------------------7-\-\---0--|
E-------------------------------------5-\-\------|

* - preci trzalicom preko 6.zice

Figura 1
E---------------------------7-5-4-5-7-5-4-5-8--|
H---------1---------5--6-5-5-------------------|
G--4-2-1-2---7-5-4-5------7--------------------|
D----------------------------------------------|
A----------------------------------------------|
E----------------------------------------------|

E-----8-7--------7--------7h8p7---------------|
H---10---10-8-10--10-8-10-------10-8-7h8p7----|
G--9---------------------------------------9--|
D---------------------------------------------|
A---------------------------------------------|
E---------------------------------------------|

E---------------------------7-5-4-5-7-5-4-5-8--|
H---------1---------5--6-5-5-------------------|
G--4-2-1-2---7-5-4-5------7--------------------|
D----------------------------------------------|
A----------------------------------------------|
E----------------------------------------------|

E-----8-7--------7--------7h8p7-----------------|
H---10---10-8-10--10-8-10-------10-8-7h8p7------|
G--9---------------------------------------9-\--|
D-----------------------------------------------|
A-----------------------------------------------|
E-----------------------------------------------|

E----------5----------------5--------|
H--5-6-8-8--8-6-5---5-6-8-8--8-6-5---|
G----------------7----------------7--|
D-----------------5------------------|
A------------------------------------|
E------------------------------------|

E------------------------------------------|
H-----5-h7p5-6-5----------5-h7p5-6-5-------|
G--5-7----------7-5-4--5-7----------7-5-4--|
D--------------------2---------------------|
A------------------------------------------|
E------------------------------------------|

E---------------------------7-5-4-5-7-5-4-5-8--|
H---------1---------5--6-5-5-------------------|
G--4-2-1-2---7-5-4-5------7--------------------|
D----------------------------------------------|
A----------------------------------------------|
E----------------------------------------------|

E--5-7-8-7-5h7p5-7p5-7p5-4-5--------------------------------------|
H----------------------------5-6-3-1h2p1-2p1-2p1-0h1p1-1p0-1p0----|
G--------------------------------------------------------------2--|
D-----------------------------------------------------------------|
A-----------------------------------------------------------------|
E-----------------------------------------------------------------|

E--------9h10p9-10p9-10p9-10p9--|
H---10-12-----------------------|
G--9----------------------------|
D-------------------------------|
A-------------------------------|
E-------------------------------|

-------9h10p9-10p9-10p9----------------|
--10-12----------------12-10-9h10p9----|
-----------------------------------11--|
---------------------------------------|
---------------------------------------|
---------------------------------------|

E------------------------9h10p9-10p9-10p9-10p9--|
H--9-10-12-9h10p9---10-12-----------------------|
G-----------------9-----------------------------|
D-----------------------------------------------|
A-----------------------------------------------|
E-----------------------------------------------|

-------9h10p9-10p9-10p9--|
--10-12------------------|
-------------------------|
-------------------------|
-------------------------|
-------------------------|

E--------------------|
H--12-10-9--12-9-10--|
G---------11----9----|
D--------------------|
A--------------------|
E--------------------|

E--------9h10p9-10p9-10p9-10p9--|
H---10-12-----------------------|
G--9----------------------------|
D-------------------------------|
A-------------------------------|
E-------------------------------|

-------9h10p9-10p9-10p9----------------|
--10-12----------------12-10-9h10p9----|
-----------------------------------11--|
---------------------------------------|
---------------------------------------|
---------------------------------------|

E-----------------------------9h10h9-10p9-10p9-10p9--|
H--9-10-12-9h10p9---10-9-10-12-----------------------|
G-----------------9----------------------------------|
D----------------------------------------------------|
A----------------------------------------------------|
E----------------------------------------------------|

E-------9h10p9-10p9-10p9-----------------------|
H--10-12----------------12-10-9h10p9--12-9-10--|
G-----------------------------------11----9----|
D----------------------------------------------|
A----------------------------------------------|
E----------------------------------------------|

E--9-h10p9------------------------------|
H---------12-10-12-10-9--10-9--------9--|
G----------------------11----11-10-11---|
D---------------------------------------|
A---------------------------------------|
E---------------------------------------|

----------------------------------|
--------------------9-10-9-10-12--|
----10-11---11-10-11--------------|
--11-----11-----------------------|
----------------------------------|
----------------------------------|

E--9--9---9-h10p9------------------------------|
H---12-12--------12-10-12-10-9--10-9--------9--|
G-----------------------------11----11-10-11---|
D----------------------------------------------|
A----------------------------------------------|
E----------------------------------------------|

----------------------------|
----------------------------|
----8-9--8-9-11-8--5-6-8-6--|
--11------------------------|
----------------------------|
----------------------------|

E--9-h10p9------------------------------|
H---------12-10-12-10-9--10-9--------9--|
G----------------------11----11-10-11---|
D---------------------------------------|
A---------------------------------------|
E---------------------------------------|

----------------------------------|
--------------------9-10-9-10-12--|
----10-11---11-10-11--------------|
--11-----11-----------------------|
----------------------------------|
----------------------------------|
[ Tab from: http://www.guitaretab.com/d/divlje-jagode/96163.html ]
E--9--9---9-h10p9------------------------------|
H---12-12--------12-10-12-10-9--10-9--------9--|
G-----------------------------11----11-10-11---|
D----------------------------------------------|
A----------------------------------------------|
E----------------------------------------------|

------------------------------|
------------------------------|
----8-9--8-9-11-8--5-6-8-6-\--|
--11--------------------------|
------------------------------|
------------------------------|

E-----------------2-4-5-5-4-2-----------------2-4-5-5-7--|
H--5-3-2-----2-3-5-----------5-3-2-------2-3-5-----------|
G-------4-2-4---------------------4-2-2-4----------------|
D--------------------------------------------------------|
A--------------------------------------------------------|
E--------------------------------------------------------|

E-----------------2-4-5-5-4-2----------------------|
H--5-3-2-----2-3-5-----------5-3-2---2-5-2-3-2-----|
G-------4-2-4---------------------4-2---2-4---4-2--|
D--------------------------------------------------|
A--------------------------------------------------|
E--------------------------------------------------|

E--9-h10p9------------------------------|
H---------12-10-12-10-9--10-9--------9--|
G----------------------11----11-10-11---|
D---------------------------------------|
A---------------------------------------|
E---------------------------------------|

----------------------------------|
--------------------9-10-9-10-12--|
----10-11---11-10-11--------------|
--11-----11-----------------------|
----------------------------------|
----------------------------------|

E--9--9--9---9-10p9-10p9-10p9-10p9-10p9---------------------9----|
H---12-12--12--------------------------12-10-9-10-12-9-10-12-10--|
G----------------------------------------------------------------|
D----------------------------------------------------------------|
A----------------------------------------------------------------|
E----------------------------------------------------------------|

E----------------9h10p9-10p9-10p9-10p9-10p9-10p9--|
H-------9-----------------------------------------|
G--10-11-10-11-\----------------------------------|
D-------------------------------------------------|
A-------------------------------------------------|
E-------------------------------------------------|

9h10p9-10p9-10p9-10p9-10p9--|
----------------------------|
----------------------------|
----------------------------|
----------------------------|
----------------------------|

E----9-10p9--9-10p9--9-10--9h10p9-10p9-10p9-9----12-9--12-9--|
H--12------12------12------------------------12--------------|
G------------------------------------------9-----------------|
D------------------------------------------------------------|
A------------------------------------------------------------|
E------------------------------------------------------------|

E----9-10p9--9-10p9--9-10--9h10p9-10p9-10p9-9----12---9----|
H--12------12------12------------------------12----10--10--|
G------------------------------------------9---------------|
D----------------------------------------------------------|
A----------------------------------------------------------|
E----------------------------------------------------------|

E--12--12--12---9h10p9-10p9-10p9---12------|
H----10--10--10-----------------10---10-\--|
G------------------------------------------|
D------------------------------------------|
A------------------------------------------|
E------------------------------------------|

E---------------------------7-5-4-5-7-5-4-5-8--|
H---------1---------5--6-5-5-------------------|
G--4-2-1-2---7-5-4-5------7--------------------|
D----------------------------------------------|
A----------------------------------------------|
E----------------------------------------------|

E-----8-7--------7--------7h8p7---------------|
H---10---10-8-10--10-8-10-------10-8-7h8p7----|
G--9---------------------------------------9--|
D---------------------------------------------|
A---------------------------------------------|
E---------------------------------------------|

E---------------------------7-5-4-5-7-5-4-5-8--|
H---------1---------5--6-5-5-------------------|
G--4-2-1-2---7-5-4-5------7--------------------|
D----------------------------------------------|
A----------------------------------------------|
E----------------------------------------------|

E-----8-7--------7--------7h8p7-----------------|
H---10---10-8-10--10-8-10-------10-8-7h8p7------|
G--9---------------------------------------9-\--|
D-----------------------------------------------|
A-----------------------------------------------|
E-----------------------------------------------|

E----------5----------------5--------|
H--5-6-8-8--8-6-5---5-6-8-8--8-6-5---|
G----------------7----------------7--|
D-----------------5------------------|
A------------------------------------|
E------------------------------------|

E------------------------------------------|
H-----5-h7p5-6-5----------5-h7p5-6-5-------|
G--5-7----------7-5-4--5-7----------7-5-4--|
D--------------------2---------------------|
A------------------------------------------|
E------------------------------------------|

E---------------------------7-5-4-5-7-5-4-5-8--5-------5--8--|
H---------1---------5--6-5-5---------------------6---6-------|
G--4-2-1-2---7-5-4-5------7------------------------5---------|
D------------------------------------------------------------|
A------------------------------------------------------------|
E------------------------------------------------------------|

E--0-h5h8-0h5h8-0h5h8-0h5h8-0h5h8-0h5h8-0h5h8-0h5h8-0-8-\--|
H----------------------------------------------------------|
G----------------------------------------------------------|
D----------------------------------------------------------|
A----------------------------------------------------------|
E----------------------------------------------------------|


E-3/5--7--8--7-5h7p5-7p5-7p5-7p5-4--5-------------|
H----------------------------------------5--6-------|
G----------------------------------------------7-5--|
D---------------------------------------------------|
A---------------------------------------------------|
E---------------------------------------------------|

E----------------------------------------------------------|
H-0h1p0-1p0-1p0-------------------------------------------|
G--------------0h1p0-1p0-1p0------------------------------|
D----------------------------2h3p2-3p2-3p2-0h2p2-2p0-2p0---|
A-------------------------------------------------------2--|
E----------------------------------------------------------|

E----------------------------------------------------------|
H-0h1p0-1p0-1p0-------------------------------------------|
G--------------0h1p0-1p0-1p0------------------------------|
D----------------------------2h3p2-3p2-3p2-0h2p2-2p0-2p0---|
A-------------------------------------------------------2--|
E----------------------------------------------------------|

E----------------------------------|
H--0-0-1---------------------------|
G-------1-1-2----------------------|
D-------------2--2--3--------------|
A---------------------7--7-/8\-\2--|
E----------------------------------|

E---------------------|
H---------------------|
G---------------------|
D---------------------|
A----------------7-\--|
E----------------5-\--|
Related for Turski Mars tab