Guitaretab - guitar tabs
Song name
# A B C D E F G H I J K L M N O P Q R S T U V W X Y Z

Divlje Jagode - Konji tab

INTRO: W/DELAY AND TREMOLO BAR

E-----------------------------------|
H-----------------------------------|
G-----------------------------------|
D6/4/6----4------------------4-----|
A-4/2/4----2---7--4---7----4--2-----|
E--------------5--6---5----2--------|
               P.M
E-----------------------------------|
H-----------------------------------|
G-----------------------------------|
D6/4/6----4------------------4-----|
A-4/2/4----2---7--7---7----4--2-----|
E--------------5--5---5----2--------|
               P.M

VERSE:
E----------------------------------------|
H----------------------------------------|
G----------------------------------------|
D----------------4--6---4---6------------|
A---4---6---7~~~~2--4---2---4---4--6--7--|
E----------------------------------------|
    P.M

PRE-CHORUS:(GRIVE SE VIJORE)
E-----------------------------------------|
H-----------------------------------------|
G-----------------------------------------|
D--4--6-----------------------------------|
A--2--4---7---9----7--7-------------------|
E---------5---7----5--5-------------------|

E-----------------------------------------|
H-----------------------------------------|
G-----------------------------------------|
D------------------9------9------9--------|
A--11----9---11----7--9---7--9---7-777777-|
E---9----7----9-------7------7------------|

E-----------------------------------------|
H-----------------------------------------|
G-----------------------------------------|
D-----------------------------------------|
A--7--6-----------------------------------|
E--5--4-----------------------------------|

E-----------------------------------------|
H-----------------------------------------|
G-----------------------------------------|
D------------------9------9------9--------|
A--11----9---11----7--9---7--9---7-777777-|
E---9----7----9-------7------7------------|

E-----------------------------------------|
H-----------------------------------------|
G-----------------------------------------|
D-----------------------------------------|
A-9-7------Natrag u uvodni riff-----------|
E-7-5-------------------------------------|

Solo:
E---------------------------------------|
H----------------------7--9-------------|
G--6------8--9-------9--------8---6--4--| x2
D--------------6------------------------|
A---------------------------------------|
E---------------------------------------|

E---------------------------------------|
H---------------------------------------|
G---------------------------------------|
D6h7p6---4/6---------------------------|
A---------------------------------------|
E---------------------------------------|
[ Tab from: http://www.guitaretab.com/d/divlje-jagode/96265.html ]
E---------------------------------------|
H----------------------7--9-------------|
G--6------8--9-------9--------8---6--4--| x2
D--------------6------------------------|
A---------------------------------------|
E---------------------------------------|

E---------------------------------------|
H---------------------------------------|
G---------------------------------------|
D6h7p6---4/6---------------------------|
A---------------------------------------|
E---------------------------------------|

E---------------------------------------|
H---15~~~~~~~~~~~~~~~-------------------|
G---------------------------------------|
D-----------------------9--------------|
A---------------------------------------|
E---------------------------------------|
                 With trem. Bar

E---------------------------------------|
H---------------------------------------|
G-14br14br---14br---14br---------------|
D--------------------------------------|
A---------------------------------------|
E---------------------------------------|
Triba bend release za efekt rzanja

E---------------------------------------|
H---------------------------------------|
G--------9---86h8p6/4/6----------------|
D--------------------------------------|
A---------------------------------------|
E-12/0----------------------------------|

E----9~~~~~~~~10~~~~~~12~~~~~~----------|
H---------------------------------------|
G---------------------------------------|
D--------------------------------------|
A---------------------------------------|
E---------------------------------------|

E----------------------------------------|
H----------------------------------------|
G----------------------------------------| 2x
D6h7p6---4/6----------------------------|
A----------------------------------------|
E----------------------------------------|

  Kromatski riff na kraju sola
E----------------------------------------|
H----------------------------------------|
G----------------------------------------|
D-14-14-14-13-13-13-12-12-12------------|
A--12-12-12-11-11-11-10-10-10------------|
E----------------------------------------|

E----------------------------------------|
H----------------------------------------|
G----------------------------------------|
D11-11-11-10-10-10--9-9-9--8-8-8--------|
A--9--9--9--8--8--8--7-7-7--6-6-6--------|
E----------------------------------------|


E----------------------------------------|
H---------/////////--pickslide-----------|
G---------////////-----------------------|
D7--------------------------------------|
A5--------------------------------------|
E----------------------------------------|

Nakon ovoga se vratite na refren i zavrsite ovu opaku pismu.
Nadam se da ce van ovo bit od pomoci.
Related for Konji tab