Song name
# A B C D E F G H I J K L M N O P Q R S T U V W X Y Z

Divlje Jagode - Jedina Moja tab

Intro:

GITARA 1
E|-----0--|-----0--|-----0--|-----0--|
B|-------0|-------0|-------0|-------0|
G|---0----|---2----|---4----|---5----|
D|-2------|-4------|-5------|-7------|
A|--------|--------|--------|--------|
E|--------|--------|--------|--------|

GITARA 2
  Em
E|---|
B|-8-|
G|-9-|
D|-9-|
A|-7-|
E|---|

GITARA 3
E|-12-|
B|-12-|
G|-12-|  malo "mutirano"(muted)
D|----|
A|----|
E|----|
_________________________________________

GITARA 1
E-----0--|-----0--|-----0--|-----0--|
B-------0|-------0|-------0|-------0|
G---0----|---2----|---4----|---5----|
D-2------|-4------|-5------|-7------|
A--------|--------|--------|--------|
E--------|--------|--------|--------|
         |        |        |
GITARA 2 |        |        |
E-----0--|-----0--|-----0--|-----0--|
B----0---|----0---|----0---|----0---|
G---0----|---2----|---4----|---5----|
D-2------|-4------|-5------|-7------|
A--------|--------|--------|--------|
E--------|--------|--------|--------|
         \
GITARA 3  \
  *        \                       **
E-15---12--|-14---11--|-15---12--|--8---7--5--|
B----0----0|----0----0|----0----0|--10--8--7--|
G----------|----------|----------|------------|
D----------|----------|----------|------------|
A----------|----------|----------|------------|
E----------|----------|----------|------------|

* drugi put i dalje:            E|-12/15---12--|
                                B|-------0----0|

** svaki drugi put:             E|--5--7--8---|
                                B|--7--8--10--|

KLAVIJATURE
E--------|--------|--------|--------|
B--------|--------|--------|--------|
G--------|--------|--------|--------|
D-2------|-4------|-5------|-7-9----|
A--------|--------|--------|--------|
E--------|--------|--------|--------|
_____________________________________

    Em                          Am    D                        Em
E-----------------------------------------------------------------|
B---------8p10b12-10b12r10----8-10----------7p8b10--8b10r8~~--7-8-|
G---7/9-------------------------------7-7-------------------------|
D-----------------------------------------------------------------|
A-----------------------------------------------------------------|
E-----------------------------------------------------------------|
    Em                          Am    D                 Em
E-----------------------------------------------------------------|
B---------8p10b12-10b12r10----8-10----------10h8-7----7-----------|
G---7/9-------------------------------7-7-----------7---9---------|
D-----------------------------------------------------------------|
A-----------------------------------------------------------------|
E-----------------------------------------------------------------|


Em              Am
Pogledaj u moje oci
D                    Em
Zasto skrivas pogled taj
Em              Am
Pogledaj u moje lice
D                Em
I pokazi osmijeh svoj


Am     C          Em
Djevojko u sutonu tihom
D      C             G
Pokraj rijeke sto koracas
Am       C         Em
S tuznom sjenom na licu svom
C               D                 Em
I kosom njeznom i kosom plavom kao lan


G                Am
Jedina moja tebi sviram ja
D                Em
Jedina moja tebi pjevam ja
       Am    D
E-e-e-eeh

SOLO (priblizno):
   Em                   C     G               Am               Em
E-----------------------------------------------------------------|
B--12h15b17~------------------12h13p12--13-12-10---12p10----------|
G----------------14b16--9--------------------------------12-11-12-|
D-----------------------------------------------------------------|
A-----------------------------------------------------------------|
E-----------------------------------------------------------------|

   D        Em                            C    G          Am
E----------------------15b17r15--15b17-12--------------------------|
B-------------------12--------------------13---12-13-15---10-12-13-|
G--11--7-11-9------------------------------------------------------|
D------------------------------------------------------------------|
A------------------------------------------------------------------|
E------------------------------------------------------------------|

   Em       D           Em     C       Em       C       Em
E-----------------------------------------------------------------|
B--8-10-12--7-8-10--7---------------------------------------------|
G---------------------7-9------9--9-7-----------9-9b11------------|
D--------------------------------------9h10p9-----------9h10p9----|
A-----------------------------------------------------------------|
E-----------------------------------------------------------------|

        D         Em       D     Em      C     Em
E-----------------------------------------------------------------|
B-----------------------------------------------------------------|
G----------------------------------------9-7----------------------|
D--9-10-12--12-10-9--------------------------10-9h10p9------------|
A-------------------10-7---9-10-9-7-------------------------------|
E-----------------------------------------------------------------|

    C      Em        D         Em       D     Em
E-----------------------------------------------------------------|
B-----------------------------------------------------------------|
G---9-9b11--------------------------------------------------------|
D----------9----9-10-12--12-10-9----------------------------------|
A--------------------------------10-7---9-10-9-7------------------|
Tap to rate this tab
# A B C D E F G H I J K L M N O P Q R S T U V W X Y Z