Song name
# A B C D E F G H I J K L M N O P Q R S T U V W X Y Z

Dixebra - Esto Ye Asturies tab

Help us improve GuitareTab! Take a short survey!
Del discu "Dieron en duru"
 
   intro:
 ------------------------------------------------------------------|
 ------------------------------------------------------------------|
 ------------------------------------------------------------------|
 ------------------------------------------------------------------|
 ----------------------1-------------------------------1-----1~~---|
 --1-2-3---1-2-3---1-3---3-2-1-----1-2-3---1-2-3---1-3---1-3-------|


 ------------------------------------------------------------------|
 ------------------------------------------------------------------|
 ------------------------------------------------------------------|
 ------------------------------------------------------------------|
 ----------------------1-------------------------3s5--3-1-3-1------|
 --1-2-3---1-2-3---1-3---3-2-1-----1-2-3---1-2-3-------------------|



"Hay un país onde manda el orbayu..."

Lo mesmo con palm mutting salvo les últimes notes que nun se toquen
 ------------------------------------------------------------------|
 ------------------------------------------------------------------|
 ------------------------------------------------------------------|
 ------------------------------------------------------------------|
 ----------------------1-------------------------------1-----1~~---|
 --1-2-3---1-2-3---1-3---3-2-1-----1-2-3---1-2-3---1-3---1-3-------|


 ------------------------------------------------------------------|
 ------------------------------------------------------------------|
 ------------------------------------------------------------------|
 ------------------------------------------------------------------|
 ----------------------1-------------------------------------------|
 --1-2-3---1-2-3---1-3---3-2-1-----1-2-3---1-2-3-------------------|

Vuelta al riff de la intro, dempués otra vez a lo muteao y llegamos al 
estribillu.

   estribillu:
      
          G5         F5                   C5    A#5   G5
    "Esto ye Asturies, esto ye Asturies, equí ye onde vivimos"
    
          G5         F5                   C5    A#5   G5 
    "Esto ye Asturies, esto ye Asturies, equí ta lo que sentimos"

  
Vuelta al riff de la intro sacante les últimes notes:


 ------------------------------------------------------------------|
 ------------------------------------------------------------------|
 ------------------------------------------------------------------|
 ------------------------------------------------------------------|
 ----------------------1-------------------------------1-----1~~---|
 --1-2-3---1-2-3---1-3---3-2-1-----1-2-3---1-2-3---1-3---1-3-------|



 ------------------------------------------------------------------|
 ------------------------------------------------------------------|
 -------------------------------------------------5s7-5-3--5-3-----|
 ------------------------------------------------------------------|
 ----------------------1-------------------------------------------|
 --1-2-3---1-2-3---1-3---3-2-1-----1-2-3---1-2-3-------------------|


La parte muteada y el estribillu otra vez y llueu el solu,la estructura
del canciu ye sencilla y estes mas o menos son les partes.

Pa cualquier cosa el mi mail: rulintxuk@hotmail.com

Salú ya Dixebra.
PUXA ASTURIES DIXEBRÁ.



Related for Esto Ye Asturies tab