Song name
# A B C D E F G H I J K L M N O P Q R S T U V W X Y Z

Dixie Chicks - Cowboy Take Me Away tab

Capo 6 (capo not accounted for in tab)



----------------------------------------------------------------------------------------|
---1----1------1-------1-----1-------1-------1-----1-------1-------------3--1h0---------|
-2--2h0---0--0--0--0h2---2h0---0---0--0--0h2---2h0---0---0---------------------2h0------|
-----------2------2--------------2-----2---------------2---------------------------0----|
-------------------------------------------------------------0h2h3----------------------|
-------------------------------------------------------------------3--------------------|


---------------------------------------------------|
---------------------------------------------------|
---------------------------------------------------|
-0h2h3-2h0------0h2h3-2h0-------0h2h3-2h0----------|
-----------3--------------3---------------3--0-----|
------------------------------------------------3--|



Next, proceed with the chords presented in version 4.
Tap to rate this tab
 
# A B C D E F G H I J K L M N O P Q R S T U V W X Y Z