Song name
# A B C D E F G H I J K L M N O P Q R S T U V W X Y Z

Dizmas - Play It Safe tab

Band: Dizmas  http://www.myspace.com/dizmas
Song: Play it Safe
Album: Tension
Record Label: EMI CMG
Release Date: May 22, 2007
Tabbed by Patrick

Tuning: Drop Db lower each string a half step and lower the low E string an
addittional step

Intro/Chorus

Guitar 1

Eb------------------------------------------------------------------------|
Bb------------------------------------------------------------------------|
Gb------------------------------------------------------------------------|
Db-0-----------------------0-----------------------9----------------------|
Ab-0-----------------------0-----------------------9----------------------|
Db-0-----------------------0-----------------------9----------------------|

Guitar 2

Eb-------------------------------------------------------------------------|
Bb-------------------------------------------------------------------------|
Gb-7-7-6-6-----------------7-7-6-6-----------------7-7-7-7-6-6-6-6-4-4-4-4-|
Db---------7-7-5-5-0-0-0-0---------7-7-4-4-0-0-0-0-------------------------|
Ab-------------------------------------------------------------------------|
Db-------------------------------------------------------------------------|

Guitar 1

Eb------------------------------------------------------------------------|
Bb------------------------------------------------------------------------|
Gb------------------------------------------------------------------------|
Db---------5--------------------------------------------------------------|
Ab---------5--------------------------------------------------------------|
Db---------5--------------------------------------------------------------|

Guitar 2

Eb------------------------------------------------------------------------|
Bb------------------------------------------------------------------------|
Gb-0-0-0-0-7-7-6-6--------------------------------------------------------|
Db-----------------7-7-5-5-5-5-5h7-7--------------------------------------|
Ab------------------------------------------------------------------------|
Db------------------------------------------------------------------------|

Verses

Guitar 1

Eb------------------------------------------------------------------------|
Bb------------------------------------------------------------------------|
Gb---------------------------9--------------------------------------------|
Db----------7--------------7----------------------------------------------|
Ab------7h9---7--------7h9------------------------------------------------|
Db--7h9------------7h9----------------------------------------------------|

Eb------------------------------------------------------------------------|
Bb------------------------------------------------------------------------|
Gb------------------------------------------------------------------------|
Db----9-9p7--------9-9h12p9----9-9p7--------------9-9p7------9-9h12p9-----|
Ab----------9------------------------9-7-7h9-9----------9-----------------|
Db--9-----------9------------9------------------9----------9--------------|

Eb------------------------------------------------------------------------|
Bb------------------------------------------------------------------------|
Gb------------------------------------------------------------------------|
Db----9-9p7---------------------------------------------------------------|
Ab----------9-7-----------------------------------------------------------|
Db--9---------------------------------------------------------------------|

Guitar 2

Eb------------------------------------------------------------------------|
Bb--10----10-----10----10-------------------------------------------------|
Gb-----11----9------11----9-----------------------------------------------|
Db------------------------------------------------------------------------|
Ab------------------------------------------------------------------------|
Db------------------------------------------------------------------------|

Chorus

Second Verse (same as first verse except play first guitar part twice)

Chorus

Bridge (repeat riff four times)

Guitar 1

Eb------------------------------------------------------------------------|
Bb----------------------8p7-8p7-7p5-7p5-7p5-0-----------------------------|
Gb--7h9-7-9-7-7h9-7-9-7---------------------------------------------------|
Db------------------------------------------------------------------------|
Ab------------------------------------------------------------------------|
Db------------------------------------------------------------------------|

Guitar 2 (comes in on the third time guitar 1 plays the bridge riff)

Eb------------------------------------------------------------------------|
Bb--15-15-15----------17-17-17-15-15-15-17b19r17p15---15-15-15------------|
Gb-----------14-14-14------------------------------------------14-14-14---|
Db------------------------------------------------------------------------|
Ab------------------------------------------------------------------------|
Db------------------------------------------------------------------------|

Eb------------------------------------------------------------------------|
Bb--17-17-17-15-15-15-14-14-14--(repeat)--end-on-15-----------------------|
Gb------------------------------------------------------------------------|
Db------------------------------------------------------------------------|
Ab------------------------------------------------------------------------|
Db------------------------------------------------------------------------|

Intro

Chorus

Chorus (guitar 1 only)

play the same lead from the bridge for the end of the song

Guitar 1

End on

Eb------------------------------------------------------------------------|
Bb------------------------------------------------------------------------|
Gb------------------------------------------------------------------------|
Db--0---------------------------------------------------------------------|
Ab--0---------------------------------------------------------------------|
Db--0---------------------------------------------------------------------|

Guitar 2

End on

Eb------------------------------------------------------------------------|
Bb--5---------------------------------------------------------------------|
Gb------------------------------------------------------------------------|
Db------------------------------------------------------------------------|
Ab------------------------------------------------------------------------|
Db------------------------------------------------------------------------|
Tap to rate this tab
 
# A B C D E F G H I J K L M N O P Q R S T U V W X Y Z