Song name
# A B C D E F G H I J K L M N O P Q R S T U V W X Y Z

Dizzee Rascal - Dance Wiv Me Live tab

----------------------------------------------------------------------------
			   DANCE WIV ME - Dizzee Rascal
--------------------------------------------------------------------------
Tabbed by: Alex Miller

Tuning: EADGbe

This is the TAB of the live acoustic version which was performed at Glastonbury. This is 
video of the performance;
www.youtube.com/watch?v=YGI_VcxHKEI

Intro Chords: D, Bb, G, D

Riff:

e|-----------------------------------------|
B|-----------------------------------------|
G|-----------------------------------------|
D|--------------------5-7-7----------------|  X2
A|-5-5-5-5-5-7-8--8-8-------8-5--5-5-3-5---|
E|-----------------------------------------|

then,

e|-----------------------------------------|
B|-----------------------------------------|
G|-----------------------------------------|
D|-----------------------------------------|
A|-5-5-5-5-5-3-2--2-2-1-1-1-3-0--0-0-------|
E|-----------------------------------1-----|

Chord Sequence:

e|-5-5-5-5--3-3-3-3--3-3---3-3-3-3--5-5-5-5--5-5------|
B|-6-6-6-6--5-5-5-5--5-5---5-5-5-5--6-6-6-6--6-6------|
G|-7-7-7-7--5-5-5-5--5-5---5-5-5-5--7-7-7-7--7-7------|
D|-7-7-7-7--5-5-5-5--5-5---5-5-5-5--7-7-7-7--7-7------|  X2
A|-5-5-5-5--3-3-3-3--3-3---3-3-3-3--5-5-5-5--5-5------|
E|----------------------------------------------------|

then,

e|-5-5-5-5--7-7-7-7--7-7---6-6-6-6--3-3-3-3--3-3------|
B|-6-6-6-6--6-6-6-6--6-6---6-6-6-6--5-5-5-5--5-5------|
G|-7-7-7-7--7-7-7-7--7-7---7-7-7-7--5-5-5-5--5-5------|
D|-7-7-7-7--5-5-5-5--5-5---5-5-5-5--5-5-5-5--5-5------|
A|-5-5-5-5--------------------------3-3-3-3--3-3------|
E|----------------------------------------------------|

Repeat this over and over. It changes at some points but it is easy to figure out the 
if you listen to the song.
Tap to rate this tab
# A B C D E F G H I J K L M N O P Q R S T U V W X Y Z