Song name
# A B C D E F G H I J K L M N O P Q R S T U V W X Y Z

Dizzee Rascal - Dance Wiv Me tab

This is for a solo acoustic guitar.
The song is basically split into to four main parts:

Intro:

e|-2-3p2-2-3p2-2-3p2-2-3p2-2-1-0h1p0-0-1---|
B|-3-3---3-3---3-3---3-3---3-3-3-----3-3---|
G|-2-2---2-2---2-2---2-2---2-2-2-----2-2---|
D|-0-0---0-0---0-0---0-0---0-0-0-----0-0---|
A|-----------------------------------------|
E|-----------------------------------------|

Main Riff/Verse:

e|-------------------------------------------------|
B|-------------------------------------------------|
G|-------------------------------------------------|
D|--------------------------7----------------------|
A|----------------7-8--8-10---8--------------------|
E|-10-10-10-10-10---------------10--10-10--8-10----|

This is played twice normally, then:

e|----------------------------------------|
B|----------------------------------------|
G|----------------------------------------|
D|----------------------------------------|
A|----------------------------------------|
E|-10-10-10-10-10-8-7~-6-8-5--5-5-3-1-0---|

Chorus:
   
This letters above show up or down strokes.

   D U D U  D D U  D  U  D  U  D D U
e|-5-5-5-3--3-3-3--8--8--8--5--5-5-5-----|
B|-6-6-6-5--5-5-5--8--8--8--6--6-6-6-----|
G|-7-7-7-5--5-5-5--9--9--9--7--7-7-7-----|
D|-7-7-7-5--5-5-5--10-10-10-7--7-7-7-----|
A|---------------------------------------|
E|---------------------------------------|

   D U D U  D D U  D U D U   D  D  U
e|-5-5-5-7--7-7-7--6-6-6-8---8--8--8-----|
B|-6-6-6-6--6-6-6--6-6-6-8---8--8--8-----|
G|-7-7-7-7--7-7-7--7-7-7-9---9--9--9-----|
D|-7-7-7-----------8-8-8-10--10-10-10----|
A|---------------------------------------|
E|---------------------------------------|



That's basically the whole song, you can work out how many times to play each part!
Tap to rate this tab
 
# A B C D E F G H I J K L M N O P Q R S T U V W X Y Z