Song name
# A B C D E F G H I J K L M N O P Q R S T U V W X Y Z

Dizzy Mizz Lizzy - Take It Or Leave It tab

    _______________________
   / Dizzy Mizz Lizzy     /  I think this song is about this guy being in
  / Take It or Leave It  /  a very bad relationship and being completely
 / Rotator              /  down becayse of it. He has now decided to quit
/______________________/  it and to try to get back on top again.

*********************************************************************************************
* Follow this link for my Guitar Pro version of this tab, which includes the bass           *
* http://www.ultimate-guitar.com/tabs/d/dizzy_mizz_lizzy/take_it_or_leave_it_guitar_pro.htm *
*********************************************************************************************


Through the entire song, there are two guitars playing excactly the same
panned in both sides. They however differ in the pre-chorus and chorus to
play in harmonies. To put it simple, then Guitar 2 really plays throughout
the entire song, but I've notated the parts where it differs from Guitar 1.

Tuning: Full step down (D G C F A D)


 Intro:
 Guitar 1 & 2
 4/4
  Dm                Ebadd9#11         Dm                Ebadd9#11
|-----------------|-----------------|-----------------|-----------------|
|-----------------|-----------------|-----------------|-----------------|
|---4-0---4-0---4-|---4-0---2-0---2-|---4-0---4-0---4-|---4-0---2-0---2-|
|-2-----2-----2---|-3-----3-----3---|-2-----2-----2---|-3-----3-----3---|
|-----------------|-----------------|-----------------|-----------------|
|-----------------|-----------------|-----------------|-----------------|


  Edim              A7                Dm                Dm
|-----------------|-----------------|-----------------|-----------------|
|-----1-------1---|---------0-------|---------------3-|p0---5---5-------|
|---2---2---2---2-|-----2-----2-0---|---4p0---4p0-----|---------0-------|
|-4-------4-------|---4---4-------4-|-2-----2-----2---|---2-----2-------|
|-----------------|-2---------------|-----------------|-----------------|
|-----------------|-----------------|-----------------|-----------------|



 Intro-Verse:
    Dm                Ebadd9#11         Dm                Ebadd9#11
||------------------|-----------------|-----------------|------------------||
||o-----------------|-----------------|-----------------|-----------------o||
||----4-0---4-0---4-|---4-0---2-0---2-|---4-0---4-0---4-|---4-0---2-0---2--||
||--2-----2-----2---|-3-----3-----3---|-2-----2-----2---|-3-----3-----3----||
||o-----------------|-----------------|-----------------|-----------------o||
||------------------|-----------------|-----------------|------------------||


  Edim              A7                Dm                Dm
|-----------------|-----------------|-----------------|-----------------|
|-----1-------1---|---------0-------|---------------3-|p0---5---5-------|
|---2---2---2---2-|-----2-----2-----|---4p0---4p0-----|---------0-------|
|-4-------4-------|---4---4-----4---|-2-----2-----2---|---2-----2-------|
|-----------------|-2---------------|-----------------|-----------------|
|-----------------|-----------------|-----------------|-----------------|




 Interlude:
 6/4
    Dm7   Cadd11 Dm7  Cadd11  Dm7   Cadd11 Dm7  Cadd11
||--------------------------|--------------------------||
||o-----3-----3-----3-----3-|-----3-----3-----3-----3-o||
||----0-----0-----0-----0---|---0-----0-----0-----0----||
||--2-----4-----2-----4-----|-2-----4-----2-----4------||
||o-------------------------|-------------------------o||
||--------------------------|--------------------------||




 1st Verse:
    Dm7   Cadd11 Dm7  Cadd11  Dm7   Cadd11 Dm7  Cadd11 3x
||--------------------------|--------------------------||
||o-----3-----3-----3-----3-|-----3-----3-----3-----3-o||
||----0-----0-----0-----0---|---0-----0-----0-----0----||
||--2-----4-----2-----4-----|-2-----4-----2-----4------||
||o-------------------------|-------------------------o||
||--------------------------|--------------------------||


  Dm7   Cadd11 Dm7  Cadd11  Dm7  Cadd11/e F6    G7    A
|-------------------------|-----------------|-----------------|
|-----3-----3-----3-----3-|-----3-----3-----|-5-----5---------|
|---0-----0-----0-----0---|---0-----0-----0-|-----0-----------|
|-2-----4-----2-----4-----|-2-----4-----5---|---7-----9\------|
|-------------------------|-----------------|-----------------|
|-------------------------|-----------------|-----------------|




 Pre-Chorus:
     Bb           Bb,b5                  Csus4          C     
||--------------------|----------------|--------------------|------------------|
||o-------------------|----------------|--------------------|------------------|
||--------------------|----------------|--------------------|------------------|
||--------------------|----------------|--------------------|------------------|
||o-10----10-10---9---|---9-9---9------|-10----10-10----9---|----9--9----9-----|
||---8-----8--8---8---|---8-8---8------|-10----10-10---10---|---10-10---10-----|


 1.
 Guitar 1
  Dm             C/d             Dm
|--------------------|---------------------||
|--------------------|--------------------o||
|--------------------|---------------------||
|-5------------------|---------------------||
|-7-------9s10---9---|---10------7--------o||
|-0---0--------------|---------------10----||
|
|Guitar 2
|--------------------|---------------------||
|--------------------|--------------------o||
|--------------------|---------------------||
|-9-------7s9----7---|----9----------------||
|-7------------------|----------10----9---o||
|-0---0--------------|---------------------||


 2.
 Guitar 1 & 2
  Gm7               Gm7             C7                  F            F
                        PM
|-----------------|---------------|-------------------|------------|-----------|
|-----------------|---------------|-------------------|------------|-----------|
|---------4---5---|---------5-----|-----------5-------|-4----------|-----------|
|---------5---5---|-----5---5-----|-------4-------4---|-5----------|-----------|
|-0---0---0---0---|---------0-----|-3s5---------------|-5----------|-----------|
|-----------------|---------------|-------------------|-3----------|-----------|




 Chorus:
  Guitar 1
    Dm                   C         Dm        Dm                   Bb5    F5
||---------------------|-------------------|--------------------|--------------|
||o--------------------|-------------------|--------------------|--------------|
||---------------------|-------------------|--------------------|--------------|
||---------------------|-------------------|--------------------|-------(9~)*--|
||o-10-9--7-9----7-----|-5---7s9---7-------|-10-9--7-9---7------|-10-----5-----|
||---------------------|---------------0-0-|---------------10---|--8-----3-----|
|
| Guitar 2
||---------------------|-------------------|--------------------|--------------|
||o--------------------|-------------------|--------------------|--------------|
||---------------------|-------------------|--------------------|--------------|
||---9-7----7----------|-------------------|--9-7----7----------|-------(9~)*--|
||o------10-----10-----|-9--10s12--10------|------10----10--9---|-10-----5-----|
||---------------------|---------------0-0-|--------------------|--8-----3-----|
                                                                 *This note is
                                                                played instead in
                                                                the Ending Chorus


                                          1.
  Dm                   C         Dm        Bb              Bb,b5
                                                                     PM|
|--------------------|-------------------|---------------|----------------||
|--------------------|-------------------|---------------|---------------o||
|--------------------|-------------------|---------------|----------------||
|--------------------|-------------------|---------------|----------------||
|-10-9--7-9----7-----|-5---7s9---7---0---|-10-----10-----|-9-----9-------o||
|--------------------|-------------------|--8------8-----|-8-----8---0-0--||
|
|                                                                    PM|
|--------------------|-------------------|---------------|----------------||
|--------------------|-------------------|---------------|---------------o||
|--------------------|-------------------|---------------|----------------||
|--9-7----7----------|-------------------|---------------|----------------||
|------10-----10-----|-9--10s12--10------|-10-----10-----|-9-----9-------o||
|--------------------|---------------0-0-|--8------8-----|-8-----8---0-0--||



  Bb              Bb,b5           Gm7               A
 Guitar 1 & 2
|---------------|---------------|-----------------|----------------|
|---------------|---------------|-----------------|----------------|
|---------------|---------------|-----------------|----------------|
|---------------|---------------|-2-----4---5---5-|-4------1-------|
|-10-----10-----|-9-------------|-0---------------|-2--------------|
|--8------8-----|-8-------------|-----------------|----------------|



The song continues with these parts that
are just similar to the previous ones:


 Interlude

 2nd Verse

 Pre-Chorus

 Chorus

 Intro

 Intro-Verse (slow down at the end here for the drum fill)

 Ending Chorus:
This is similar to the other choruses, just end on this:

  Gm7               A                A                D5
|-----------------|----------------|----------------|----------------|
|-----------------|----------------|----------------|----------------|
|-----------------|----------------|----------------|----------------|
|-2-----4---5-----|-4--------------|----------------|-2--------------|
|-0---------------|-2--------------|----------------|-2--------------|
|-----------------|----------------|----------------|-0--------------|


- 5th /January /08
Just mail me at Maitinin@gmail.com with questions, comments and corrections!
Tap to rate this tab
# A B C D E F G H I J K L M N O P Q R S T U V W X Y Z