Song name
# A B C D E F G H I J K L M N O P Q R S T U V W X Y Z

Dizzy Mizz Lizzy - Waterline tab

Allright, ill post the theme of the song in 2 versions. One easy way, and the way Tim 
plays it :)
By the way, this is totally regular tuning

The easy one:
E---------------------------8------------------|
B-----7-8-7----------7-8-10---8/10-7-----------|
G-7-8-------8-7--------------------------------|
D----------------------------------------------|
A----------------------------------------------|
E----------------------------------------------|


E----------------------------------------------|
B--8p7----8p7----8p7---------------------------|
G------7------5-------4------------------------|
D----------------------------------------------|
A----------------------------------------------|
E----------------------------------------------|

E--5--5---5------------------------------------|
B--5--5---6------------------------------------|
G--5--5---5------------------------------------|
D--5--5---5------------------------------------|
A----------------------------------------------|
E----------------------------------------------|


And thats the easy way to do it. Now, to show how Tim Christensen does it himself, this 
gonna sound cool, unless you use some distortion or whatever, so dont be chocked when 
get a lame sound from it.

E----------------------------------------------|
B-------7--8--7--------------------------------|
G-7--8-----------8---7-------------------------|
D-------4--5--4--------------------------------|
A-5--6-----------6---5-------------------------|
E----------------------------------------------|

E------------8---------------------------------|
B--7--8--10-----8/10-7-------------------------|
G------------5---------------------------------|
D--4--5--7------5/7--4-------------------------|
A----------------------------------------------|
E----------------------------------------------|

E----------------------------------------------|
B--8/7---7---8/7---5---8/7---4-----------------|
G----------------------------------------------|
D--5/4---5---5/4---3---5/4---2-----------------|
A----------------------------------------------|
E----------------------------------------------|


E--5--5----5-----------------------------------|
B--5--5----6-----------------------------------|
G--5--5----5-----------------------------------|
D--5--5----5-----------------------------------|
A----------------------------------------------|
E----------------------------------------------|

And thats the theme :) Both the easy way, and the real way. Ill post the rest of the 
if it seems wanted inhere.

@Martin Busk.
Tap to rate this tab
# A B C D E F G H I J K L M N O P Q R S T U V W X Y Z