Dizzy Mizz Lizzy - Silverflame tab

D----------------------------------------------------------------------------|
A----------------------------------------------------5-6-8-------------------|
F----------5-7b8-7b8-7p5-8b7--5-7b8-7b8b7p5-7--5-7b8-------7b8-5-7---5-------|
C------5-7---------------------------------------------------------7---7-5---|
G--5/7-----------------------------------------------------------------------|
D----------------------------------------------------------------------------|

D------------------------------------------------------------------5-7-8-7\--|
A------------------------------------------------------------5-6-8-----------|
F-------------------------------4-5-7-7b8-5--5-4h5p4-----5-7-----------------|
C-------------------------3-5-7----------------------5-7---------------------|
G--7\5-3-5/7-3------3-5/7----------------------------------------------------|
D--------------5--5----------------------------------------------------------|


D-/10-7----------------------------------------------------------------------|
A-------8-----------------------------5-8----------------------5-8-8b10b8-5--|
F---------9\7-5-9\7-5-------------5-7------7b8b7-5-8b7-7-5-7b8---------------|
C---------------------7\5-----5-7--------------------------------------------|
G-------------------------5/7------------------------------------------------|
D----------------------------------------------------------------------------|

D-----------------------------7---8---7------------------------7-7-8-8-10-10-|
A-------------------------8-----8---8---8/10-8-10b1310-8-10-10---------------|
F-7b8b7p5---7-5-------5-7---7------------------------------------------------|
C---------7-----7--77--------------------------------------------------------|
G----------------------------------------------------------------------------|
D----------------------------------------------------------------------------|

D-10/12-12-12-12p11-11-10----10/11-11-10---------------------------------------|
A-------------------------11-------------11-------------------------------8-11-|
F-------------------------------------------10h12p10-8-9-8h9p8----8-10b12------|
C--------------------------------------------------------------10--------------|
G------------------------------------------------------------------------------|
D------------------------------------------------------------------------------|

D----------------------------------------------------------------------------|
A----------11b13b11p8--------------------11b13b11p8--------------------------|
F-10b12-8-------------10b11b10-8---8---6------------10b11b10-8---8---6-------|
C--------------------------------8---8-------------------------8---8---------|
G----------------------------------------------------------------------------|
D----------------------------------------------------------------------------|

D------------------------------------------------------------------------------|
A--11b13b11p8----------------------------8-9-11--------------------------------|
F-------------10b11b10-8---6p8--8-6-8b10--------8b10-8-10-----8h10b11b10p8~----|
C------------------------8--------------------------------10----------------8--|
G------------------------------------------------------------------------------|
D------------------------------------------------------------------------------|
Tap to rate this tab
 
# A B C D E F G H I J K L M N O P Q R S T U V W X Y Z