Song name
# A B C D E F G H I J K L M N O P Q R S T U V W X Y Z

Dizzy Mizz Lizzy - Glory tab

Glory
Dizzy Mizz Lizzy
By Dizzy Mizz Lizzy


Standard tuning.

e-----------------|---------------------------|-----------|---------------|
b-----------------|---------------------------|-----------|---------------|
g-------6---------|-------8B-----8---8---6----|-----------|------6---H8B--|
d---8-------------|---8---------------------8-|-----------|--8------------|
a-----------------|---------------------------|---6---6---|---------------|               
e-----------------|---------------------------|-9---9---9-|---------------|

e---------------------|------------------|
b------------6-9------|----------6-7-----|
g----6-8-8BR-----8-6--|----6-8BR----6-8--|
d--8------------------|--8---------------|
a---------------------|------------------|
e---------------------|------------------|

e--------------------------------------|
b------6---6---6---6--6---6---6---6----|
g--6-----8---6---5------8---6---5------|
d-------------------8---------------8--|
a--------------------------------------|
e--------------------------------------|

e--------------------------------------|------------------------|-----------|
b--7-6-7---7---7-----------------------|------------------------|-----------|
g--------8---6---5--56--8--10/8--6----|--8--6--------8BR--6----|-----------|
d------------------------------------8-|--------8--8----------8-|-----------|
a--------------------------------------|------------------------|---6---6---|
e--------------------------------------|------------------------|-9---9---9-|

e----------6-------------------|--------------------------|
b--------6---9-6---------------|--------------------------|
g--8BR-----------9-8-6---8-6---|--8BR--8B--8--6-----------|
d----------------------8-----8-|-----------------8--6--5--|
a------------------------------|--------------------------|
e------------------------------|--------------------------|

/=slide
H=hammer-on
B=bend
BR=realese bend
Tap to rate this tab
 
# A B C D E F G H I J K L M N O P Q R S T U V W X Y Z