Song name
# A B C D E F G H I J K L M N O P Q R S T U V W X Y Z

Dizzy Mizz Lizzy - When The River Runs Dry tab

    ___________________________
   / Dizzy Mizz Lizzy         /  I think this song is about this guy who knows
  / When the River Runs Dry  /  that his relationship is coming to an end.
 / Rotator                  /  When the River Runs Dry is a great metaphor for
/__________________________/  that itself.

**************************************************************************************************
Follow this link for my Guitar Pro version of this tab including the bass and all the details:*
http://www.ultimate-guitar.com/tabs/d/dizzy_mizz_lizzy/when_the_river_runs_dry_ver2_guitar_pro.htm
**************************************************************************************************

- This song is played by 3 guitars. Gtr 1 and Gtr 2 play excactly the same,
  so I've only split them up in the second half of the "Build-Up"-part.
  Gtr 3 plays the solo, while the other two play the same for backing
- Note that this is the only Dizzy-song that's actually in standard tuning!


 Intro:
    Am                        Dm/a                     G
    PM    PM-|     PM         PM    PM-|     PM        PM    PM-|     PM
||--------------------------|------------------------|-------------------------|
||o-------------------------|------------------------|-------------------------|
||--------------------------|------------------------|-------------------------|
||--------------------------|------------------------|-------------------------|
||o----7--------7-----7--7--|----8--------8-----8--8-|----5--------5-----5--x/-|
||--5-----5--5-----5--------|-5-----5--5-----5-------|-3-----3--3-----3-----x/-|


 1.                       2.
  Em         C             Em           C
|-----------------------||-------------------------||
|----------------------o||------------------------o||
|-10--9~-----7--5-------||-14--12~-----10--9-------||
|-----------------------||-------------------------||
|--8--7~-----5--3------o||-12--10~------8--7------o||
|-----------------------||-------------------------||


 3.
  Em         C           B             E            Am           Am
|----------------------|-------------|------------|------------|------------|
|----------------------|-------------|------------|------------|------------|
|-10--9~-----7--5------|-4-----4-----|-4----4-----|-2----------|------------|
|----------------------|-1-----1-----|-2----2-----|-2----------|------------|
|--8--7~-----5--3------|-2-----2-----|-2----2-----|-0----------|------------|
|----------------------|-------------|------------|------------|------------|




 Verse:
    Am        A#      Bdim           C            \
||-----------------------|----------------------|  \
||o----------------------|----------------------|   \
||-----------------------|----------------------|    > x3
||-----------------------|----------------------|   /
||o-7----7----8----8--9--|---9------10-10-10-10-|  /
||--5----5----6----6--7--|---7-------8--8--8--8-| /
" You can stab me in the back
  You can paint my pure heart black
  Puts me on another track "


  F                       F,b5
|-----------------------|-----------------||
|-----------------------|----------------o||
|-12----x-10----x--9----|-x---------------||
|-10----x-10----x-10----|-x-9-----9-------||
|--8----x--8----x--8----|-x-8-----8------o||
|-----------------------|-----------------||
" Guess  you     know      by    now "



  Dm7                     Dm6                 G7                 G7
|-----------------------|-------------------|------------------|---------------|
|-----------------------|-------------------|------------------|---------------|
|-----12---x-10---x--9--|-------------------|-12------10-------|-9-------7-----|
|-----10---x-10---x-10--|----9-----9--------|------x-------x---|-----x---------|
|-----------------------|-------------------|-10---x---8---x---|-7---x---5-----|
|-10--------------------|---10----10--------|------------------|---------------|
"    Guess  you    know     by   now,         Guess   you       know     by


  A                  A
|------------------|------------------|
|------------------|------------------|
|-6----------------|------------------|
|-7----------------|------------------|
|-7----------------|------------------|
|-5----------------|------------------|
 now "




 Chorus:
  A                A                 F,b5              F,b5
|-----------------|-----------------|-----------------|-----------------|
|-----0-----------|-3-2-----0-------|---------0-------|-2h3-2-----0-----|
|-------2---------|-----------2-----|-----------2-----|-2---------2-----|
|-----------------|-----------------|-3-3-3-3---3-3-3-|-3-------3---3---|
|-0-----------0-0-|-----0-------0---|-----------------|-----------------|
|-----------------|-----------------|-----------------|-----------------|


  A                A                 F,b5              F,b5
|-----------------|-----------------|-----------------|-----------------|
|-----0-----------|-3-2-----0-------|-------0-----0h1-|---------3-2-0---|
|-------2---------|-2-2-----2-2-----|-------2-----2---|---2---2-------2-|
|-----------------|-------------0-2-|-3---3-3---------|-----------------|
|-0-----------0-0-|-----0-----------|-----------------|-----------------|
|-----------------|-----------------|-----------------|-----------------|


  A                A                 F,b5              F,b5
|-----------------|-----------------|-----------------|-----------------|
|-----0-----------|-3-2-----0-------|---------0-------|-2h3-2-----0-----|
|-------2---------|-----------2-----|-----------2-----|-2---2-----2-----|
|-----------------|-----------------|-3-3-3-3-----3---|-3-------3---3---|
|-0-----------0-0-|-----0-------0---|-----------------|-----------------|
|-----------------|-----------------|-----------------|-----------------|


  A                A                 F,b5              F,b5
|-----------------|-----------------|-----------------|-----------------|
|-----0-----------|-3-2-----0-------|-------------0---|-----------------|
|-------2---------|-2-2-----2-2-----|-------2---------|---2-----2-------|
|-----------------|-------------0-2-|-3---3---3-------|---------3---3---|
|-0-----------0-0-|-----0-----------|-----------------|-----------------|
|-----------------|-----------------|-----------------|-----------------|


  Esus4             E                 A                 A
|-----------------|-----------------|-----------------|-----------------|
|-----------------|-------------2s3-|-2---------------|-----------------|
|-2-------2-------|-1-------1-------|-2---------------|-----------------|
|-2---2---2---2---|-2---2---2-------|-x---------------|-----------------|
|-----------------|-----------------|-0---------------|-----------------|
|-----------------|-----------------|-----------------|-----------------|




 Verse:
similar to previous


 Chorus:
similar to previous except for the ending:

  Esus4             E
|-----------------|-----------------|
|-----------------|-----------------|
|-2-------2-------|-1---------------|
|-2---2---2---2---|-2---x/--x\------|
|-----------------|-----------------|
|-----------------|-------------0---|




 Tonzer-Bridge:
    F,b5              F,b5              F,b5
                                                PM----|
||------------------|-----------------|-----------------|
||o-----------------|-----------------|-----------------|
||--4-----------4---|-----4-----------|-----4-----------|
||--3---x---x---3---|-x---3---x---x---|-x---3-----------|
||o-2---x---x---2---|-x---2---x---x---|-x---2---2-3-4-5-|
||--1---x---x---1---|-x---1---x---x---|-x---1---1-2-3-4-|


 1.
  A,b5              A,b5              A,b5
                                              PM----|
|-----------------|-----------------|------------------||
|-----------------|-----------------|-----------------o||
|-8-----------8---|-----8-----------|-----8------------||
|-7---x--<4>--7---|-x---7---x---x---|-x---7------------||
|-6---x---x---6---|-x---6---x---x---|-x---6---6-5-4-3-o||
|-5---x---x---5---|-x---5---x---x---|-x---5---5-4-3-2--||


 2.
  A,b5              A,b5              A,b5              A,b5
|-----------------|-----------------|-----------------|-----------------|
|-----------------|-----------------|-----------------|-----------------|
|-8-----------8---|-----8-----------|-----8-----------|-----8-----------|
|-7---x-------7---|-x---7---x---x---|-x---7---x---x---|-----7-----------|
|-6---x-------6---|-x---6---x---x---|-x---6---x---x---|-----6---x\------|
|-5---x---0---5---|-x---5---x---x---|-x---5---x---x---|-0---5---x\------|




 Build-Up:
  E7b9
|-----------------|-----------------|-----------------|-----------------|
|-----------------|-----------------|-----------------|-----------------|
|-----------------|-1---2---1~------|-----------------|-2s4---2---1~----|
|-----2h3---2-----|-----------------|-2h3---2---3---2-|-----------------|
|-----------------|-----------------|-----------------|-----------------|
|-0---------------|-----------------|-----------------|-----------------|


 Gtr 1
|-----------------|-----------------|-----------------|-----------------|
|-----------------|-----------------|-----------------|-----------------|
|-----------------|-1h2---1---2-----|-4-4-4-4-----4~--|---------4-4-4-4-|
|-----2h3---2-----|-----------------|-2-2-2-2---------|-2~------2-2-2-2-|
|-----------------|-----------------|-----------------|-----------------|
|-------------0---|-----------------|---------0-------|-----0-----------|
|
|Gtr 2
|-----------------|-----------------|-----------------|-----------------|
|-----------------|-----------------|-----------------|-----------------|
|-----1h2---1-----|-4h5---4---5-----|-7-7-7-7-7-7-7-7-|-7-7-7-7-7-7-7-7-|
|-----------------|-----------------|-----------------|-----------------|
|-----------------|-----------------|-5-5-5-5-5-5-5-5-|-5-5-5-5-5-5-5-5-|
|-0---------------|-----------------|-----------------|-----------------|




 Guitar Solo:

Backing:
 Gtr 1 + 2
    A                 A                 F,b5              F,b5             8x
||------------------|-----------------|-----------------|------------------||
||o-----------------|-----------------|-----------------|-----------------o||
||------------------|-----------------|-----------------|------------------||
||--7-----7-7-7-7-7-|-7-7-7-7-7-7-7-7-|-3-----3-3-3-3-3-|-3-3-3-3-3-3-3-3--||
||o-----------------|-----------------|-----------------|-----------------o||
||--5-----5-5-5-5-5-|-5-5-5-5-5-5-5-5-|-1-----1-1-1-1-1-|-1-1-1-1-1-1-1-1--||



Solo
(part1):
 Gtr 3
|-----------------|-----------------|-----------------|-----------------|
|-----------------|-----------------|-----------------|-----------------|
|-18---------12---|---14------18s19-|-18---------12---|---14------18s19-|
|-----------------|-----------------|-----------------|-----------------|
|-16---------10---|---12------16s17-|-16---------10---|---12------16s17-|
|-----------------|-----------------|-----------------|-----------------|

|-----------------|-----------------|-----------------|-----------------|
|-----------------|-----------------|-----------------|-----------------|
|-18--19---19s21--|---18------------|-16-------16s12--|--10-10-10-10----|
|-----------------|-----------------|-----------------|-----------------|
|-16--17---17s19--|---16------------|-14-------14s10--|---8--8--8--8----|
|-----------------|-----------------|-----------------|-----------------|

|-----------------|-----------------|-----------------|-----------------|
|-----------------|-----------------|-----------------|-----------------|
|-9----14----16---|---18----18------|-10---14----17---|---16----19------|
|-----------------|-----------------|-----------------|-----------------|
|-7----12----14---|---16----16------|--8---12----15---|---14----17------|
|-----------------|-----------------|-----------------|-----------------|

|-----------------|-----------------|-----------------|-----------------|
|-------------20~-|-----------------|-----------20s22-|---20--20-20-x-x-|
|-18---19s21------|---21-19-18--19--|-----17s19-------|-------------x-x-|
|-------------17~-|-----------------|-15--------17s19-|---17--17-17-x-x-|
|-16---17s19------|---19-17-16--17--|-----15s17-------|-------------x-x-|
|-----------------|-----------------|-13--------------|-----------------|


(part2):
|-----------------|--------------------|-----------------|----------------|
|-----x----x------|-x----x-------------|-----x----x------|-x----x---------|
|-14~-x----x-14~--|-x----x-14s16-16s17-|-16~-x----x-16~--|-x----x-/17-16--|
|-----x-14-x------|-x-14-x-------------|-----x-15-x------|-x-15-x---------|
|-12~-x----x-12~--|-x----x-12s14-14s15-|-14~-x----x-14~--|-x----x-/15-14--|
|-------12--------|---12---------------|-------13--------|---13-----------|

|------------------|----------------------|
|-----x----x-------|-x-20--20-------------|
|-14~-x----x-19s21-|-x--------19s21-21-21-|
|-----x-14-x-------|-x-17--17-------------|
|-12~-x----x-17s19-|-x--------17s19-19-19-|
|-------12---------|----------------------|

|-----------------------|-----------------------|
|-----------------------|-----------------------|
|-21s22-19s21-17--19-16-|---17-14--16-12-12-12--|
|-----------------------|-----------------------|
|-19s20-17s19-15--17-14-|---15-12--14-10-10-10--|
|-----------------------------------------------|

|--------------------|--------------------|
|--------------------|--------------------|
|-9s10s9--/14---9s10s|s9--/16---9s10s9s17-|
|--------------------|--------------------|
|-7s-8s7--/12---7s-8s|s7--/14---7s-8s7s15-|
|--------------------|--------------------|

|-----------------------------------------|---------------------------|
|-----------------------------------------|---------------------------|
|-17--17-17-16--16-16-19--19-19-16--16-16-|-17--17-17-16--12----12s14-|
|-----------------------------------------|---------------------------|
|-15--15-15-14--14-14-17--17-17-14--14-14-|-15--15-15-14--10----10s12-|
|-----------------------------------------|---------------------------|


|--------------------------------------|---------------------------------------|
|--------------------------------------|---------------------------------------|
|-14--14--14--14-14-16--16-16-16-16-16-|-17--17-17-17--19-19-19-21-21-21-21-21-|
|--------------------------------------|---------------------------------------|
|-12--12--12--12-12-14--14-14-14-14-14-|-15--15-15-15--17-17-17-19-19-19-19-19-|
|--------------------------------------|---------------------------------------|


|-------------------------19--20--|-20--19--20--20--20--20--20--20--|-20\----
|-20--22--22--20--22--22----------|---------------------------------|--------
|-------------------------16--17--|-17--16--17--17--17--17--17--17--|-17\----
|-17--19--19--17--19--19----------|---------------------------------|--------
|---------------------------------|---------------------------------|--------
|---------------------------------|---------------------------------|--------
                                                                    " Guess...




 Outro-Verse:
     F                      F,b5              Dm7
||------------------------|-----------------|-----------------------|
||o-----------------------|-----------------|-----------------------|
||--12----x-10----x--9----|-x---------------|-----12---x-10---x--9--|
||--10----x-10----x-10----|-x-9-----9-------|-----10---x-10---x-10--|
||o--8----x--8----x--8----|-x-8-----8-------|-----------------------|
||------------------------|-----------------|-10--------------------|


  Dm6                 G7/f               G7/f
|-------------------|------------------|---------------|
|-------------------|------------------|---------------|
|-------------------|-12------10-------|-9-------7-----|
|----9-----9--------|------x-------x---|-----x---------|
|-------------------|-10---x---8---x---|-7---x---5-----|
|---10----10--------|------------------|---------------|


 1.
  A7/g              A7/g
|-----------------|------------------||
|-----------------|-----------------o||
|-------------6---|------------------||
|---------5-------|-5----------------||
|-----4-----------|-----4-------4---o||
|-3---------------|---------3--------||


 2.
  A                 A                 A                 A
|-----------------|-----------------|-----------------|-----------------|
|-----------------|-----------------|-----------------|-----------------|
|-6---------------|-----------------|-----------------|-----------------|
|-7---------------|-----------------|-----------------|-----------------|
|-7---------------|-----------------|-----------------|-----------------|
|-5---------------|-----------------|-----------------|-----------------|




 Outro:
  Am                        Dm/a                      G
  PM    PM-|     PM         PM    PM-|     PM         PM    PM-|     PM
|-------------------------|-------------------------|--------------------------|
|-------------------------|-------------------------|--------------------------|
|-------------------------|-------------------------|--------------------------|
|-------------------------|-------------------------|--------------------------|
|----7--------7-----7--7--|----8--------8-----8--8--|----5--------5-----5--x/--|
|-5-----5--5-----5--------|-5-----5--5-----5--------|-3-----3--3-----3-----x/--|


  Em         C           B             E            Am           Am
|----------------------|-------------|------------|------------|------------|
|----------------------|-------------|------------|------------|------------|
|-10--9~-----7--5------|-4-----4-----|-4----4-----|-2----------|-x----------|
|----------------------|-1-----1-----|-2----2-----|-2----------|-x----------|
|--8--7~-----5--3------|-2-----2-----|-2----2-----|-0----------|-x----------|
|----------------------|-------------|------------|------------|------------|


- 8th /February /08
Just mail me at Maitinin@gmail.com with questions, comments and corrections!
Tap to rate this tab
# A B C D E F G H I J K L M N O P Q R S T U V W X Y Z