Song name
# A B C D E F G H I J K L M N O P Q R S T U V W X Y Z

Dizzy Mizz Lizzy - Glory tab

    ____________________
   / Dizzy Mizz Lizzy  /  Lyden: Dizzy dub'er altid guitar-sporet til højre og
  / Glory             /  venstre side med den dér helt unikke Dizzy-Overdrive,
 / Dizzy Mizz Lizzy  /  som det ikke har lykkedes nogen at kopiere endnu!
/___________________/  Soloen er placeret midten af lydbilledet med samme
                      overdrive og en smule rumklang.

************************************************************************************
* Følg dette link for se min Guitar Pro-version af tab'en                          *
* - med bas og noget flere detaljer!                                               *
* http://www.ultimate-guitar.com/tabs/d/dizzy_mizz_lizzy/glory_ver3_guitar_pro.htm *
************************************************************************************

Tempo: 141 bpm
Tuning: D G C F A D (strengene en hel tone ned)

-Intro:
  4/4                                                               *         *
||------------------|-------------------|-------------------|---------------------|
||o-----8-------6---|-------9-------8---|------8--------9---|------11--------11~\-|
||----5---5---5---5-|-----7---7---7---7-|----8---8----8---8-|----8----8----8------|
||--6-------6-------|-6s8-------8-------|-10-------10-------|-10--------10--------|
||o-----------------|-------------------|-------------------|---------------------|
||------------------|-------------------|-------------------|---------------------|

                                                       ____________    ____________
                                                      |1.             |2.
                                                       3/4             3/4
|-----------------|-----------------|-----------------|--------------||-------------|
|-----8-------6~--|-----6-------4\--|-----------------|-------------o||-------------|
|---5---5---5-----|---4---4---4-----|-5---5-----------|---------5-7--||-------------|
|-6-------6-------|-5-------5-------|-------5---5-----|-------5------||-------------|
|-----------------|-----------------|-------------6---|-6---6-------o||-6-----------|
|-----------------|-----------------|-----------------|---8----------||---8\--------|

 *i 2.rundgang laver Tim et par "artificial harmonics" to
  oktaver over tonerne ved at pick'e omkring bagerste pickup.




-Vers:
 4/4
                                        PM|
||------------------|-----------------|-----------------|------------------||
||o-----------------|-----------------|-----------------|-----------------o||
||------------------|-----------------|-----------------|------------------||
||--5---5/--8---7-8-|---7---10---9----|-----5/--8---7-8-|---7---10---9-----||
||o-3---3/--6---6-6-|---8---10--10----|-3-3-3/--6---6-6-|---8---10--10----o||
||------------------|-----------------|-----------------|------------------||




-Pre-Chorus:

  PM|          PM|   PM----|
|------------------|------------------|-----------------|-----------------|-------------|
|------------------|------------------|-----------------|-----------------|-------------|
|-----5------------|------------------|-----------------|-----------------|-------------|
|-------5----------|---------8----8/--|-------10---10/--|-12----9----10---|---------10\-|
|-3-3----------3-6-|-6-6-6-6------6/--|-8-8-8--8----8/--|-10---10----10---|---------10\-|
|------------------|------------------|-----------------|-----------------|-------------|




-Vers

-Pre-Chorus

-Omkvæd (Intro-riff'et)

-Vers

-Pre-Chorus

-Omkvæd

-Solo + Solo-Backup:
 
                          PM         ~~~~~        ~~~~~~~~~~
|---------------|------------------|------------------|-------------------|
|---------------|------------------|------------------|-------------------|
|-----8---------|-(8)b10-----10b12-|-10----8b10-------|-------------------|
|-/10-----------|---------10-------|--------------10*-|-(10)---8----------|
|---------------|------------------|------------------|----------\8-6-8-6-|
|---------------|------------------|------------------|-------------------|
                                                    *A.H.(en oktav)


                                                        ~~                          ~~~~
|--------------|------------------|-----------------------------|--------------------------|
|--------------|------------------|---------8*-11---------------|-------8-9----------------|
|-----8--------|-(8)b10------8-10-|-(10)b12-------10b12-8-----8-|-10b12-----10b12-8h10---8-|
|-/10----------|----------10------|------------------------10---|--------------------------|
|--------------|------------------|-----------------------------|--------------------------|
|--------------|------------------|-----------------------------|--------------------------|
                                             *A.H.(to oktaver)


       PM tonerne på D- & G-strengen-------------------------|
|--------------------|--------------------|----------------------|---------------------|
|--6s8----8---8----8-|----8----8---8----8-|----8s9----9----9---9-|----------8h9p8------|
|------10---8--------|------10---8--------|--------12---10---8---|-7-7-8-10-------8----|
|---------------12---|-10------------12---|-10-------------------|------------------10-|
|--------------------|--------------------|----------------------|---------------------|
|--------------------|--------------------|----------------------|---------------------|


|------------------------|------------------------|---------8----------------------------|
|------------------------|------------------------|-------8---11b13-11-8-----------------|
|-8s10---8---------10b12-|-8--------------------8-|-10b12----------------11-10-8----8-10-|
|----------10---10-------|---10------------8-10---|------------------------------10------|
|------------------------|--------8p6-8s10--------|--------------------------------------|
|------------------------|------------------------|--------------------------------------|


                          (her starter det følgende pre-chorus som disse
                           sidste tre toner af soloen lapper ind over)
|------------------------|-----------------|-----------------|-----------------|
|------------------------|-----------------|-----------------|-----------------|
|-10b12--10b12--10p8s7h8-|-----------------|-----------------|-----------------|
|------------------------|-10--------------|-8---------------|-7---------------|
|------------------------|-----------------|-----------------|-----------------|
|------------------------|-----------------|-----------------|-----------------|




- Solo-Backup:
||----------------|---------------|--------------|---------------|
||o---------------|---------------|--------------|---------------|
||----------------|---------------|--------------|---------------|
||----------------|---------------|-3------3---6-|---------5-6-5-|
||o-3-------3---6-|---------------|--------------|---------------|
||----------------|---------------|--------------|---------------|

 |----------------|---------------|--------------|----------------||
 |----------------|---------------|--------------|---------------o||
 |----------------|---------------|--------------|----------------||
 |----------------|---------------|--------------|----------------||
 |-3--------3---6-|---------------|--------------|---------------o||
 |----------------|---------------|-1------1---4-|---------3-4-3--||




-Pre-Chorus

-Modulation-stykket: Lige efter pre-chorus'et bliver disse to takter
 smidt ind, og sangen modulerer en halv tone op (dvs. skifter toneart
 fra Cmol til C#mol) for at give noget ekstra power til omkvædet her.

|-----------------|-------------|
|-----------------|-------------|
|-----------------|-------------|
|-13---10----11---|---------11\-|
|-11---11----11---|---------11\-|
|-----------------|-------------|



-Omkvæd (moduleret):
 Riff'et fuldstændigt magen til før, bare flyttet et bånd op. Læg mærke til at første
 rundgang gentages en ekstra gang.

  4/4
||------------------|--------------------|--------------------|---------------------|
||o-----9-------7---|-------10-------9---|------9--------10---|------12--------12~\-|
||----6---6---6---6-|-----8----8---8---8-|----9---9----9----9-|----9----9----9------|
||--7-------7-------|-7s9--------9-------|-11-------11--------|-11--------11--------|
||o-----------------|--------------------|--------------------|---------------------|
||------------------|--------------------|--------------------|---------------------|

                                                       ____________    ____________
                                                      |1.,2.          |3.
                                                       3/4             3/4
|-----------------|-----------------|-----------------|--------------||-------------|
|-----9-------7~--|-----7-------5\--|-----------------|-------------o||-------------|
|---6---6---6-----|---5---5---5-----|-6---6-----------|---------6-8--||-------------|
|-7-------7-------|-6-------6-------|-------6---6-----|-------6------||-------------|
|-----------------|-----------------|-------------7---|-7---7-------o||-7-----------|
|-----------------|-----------------|-----------------|---9----------||---9\--------|


- 28th /June /07
Just mail me at Maitinin@gmail.com with questions, comments and corrections!
Tap to rate this tab
# A B C D E F G H I J K L M N O P Q R S T U V W X Y Z