Song name
# A B C D E F G H I J K L M N O P Q R S T U V W X Y Z

Dizzy Mizz Lizzy - Hidden War tab

    ____________________
   / Dizzy Mizz Lizzy  /  Jeg har den fint skrevet ind i guitar pro hvis det er.
  / Hidden War Solo   /  Bare mail mig, og så sender jeg den.
 / Dizzy Mizz Lizzy  /  
/___________________/  

Tuning: Full Step Down (D G C F A D)

  G                                      C/f           A#sus2
|--------------------------------------|---------------------------------------|
|--------------------------------2-3-5-|-------------------------------------5\|
|---4h6-4~------2h4-2------2-4b6-------|-4b6----r4p2-4-----2-5p2---2-5b7r5-----|
|--x-------------------2/4-------------|-------------------------5-------------|
|-x------------------------------------|---------------------------------------|
|--------------------------------------|---------------------------------------|


  G                                  C/f
|----------------------------------|-----------------------------|
|\2~---------------------------2h3-|-2h3--2----------------------|
|------------------2-4p2-4b6-------|------------2/4--------------|
|--------------2h4-----------------|-----------------------------|
|----------2h4---------------------|-----------------------------|
|----------------------------------|-----------------------------|


  G
|-4h5p4p0---------------------------------|
|-----------------------------------2-3-5-|
|---------4-----4h6p4p2-4~--4p2-4b6-------|
|-----------------------------------------|
|-----------------------------------------|
|-----------------------------------------|


  C/f             A#sus2
|---------------------------------------------------|
|---------------------------5-6-8-------------------|
|-4b6r4p2-4-2---2-----5-5b7-------5b7-5-7---5-------|
|-------------5---5/7---------------------7---7-5---|
|-------------------------------------------------7-|
|---------------------------------------------------|


  G                                C/f                     C/f
|--------------------------------|-----------------------|------------------|
|--------------------------------|-----------------------|------------------|
|-4/6~-------------2-4---4b6r4---|-2h4-2~--------4b6r4---|-2h4-2~-----------|
|--------------2-4---------------|-----------------------|------------------|
|----------2h4-------------------|-----------------------|------------------|
|--------------------------------|-----------------------|------------------|


- 17th /January /08
Just mail me at maitinin@gmail.com with questions, comments and corrections!
Tap to rate this tab
# A B C D E F G H I J K L M N O P Q R S T U V W X Y Z