Song name
# A B C D E F G H I J K L M N O P Q R S T U V W X Y Z

Dizzy Mizz Lizzy - Back-bone-beat tab

#----------------------------------PLEASE NOTE---------------------------------#
#This file is the author's own work and represents their interpretation of the #
#song. You may only use this file for private study, scholarship, or research. #
#------------------------------------------------------------------------------#

================================================================================
         Title : Back-bone-beat
        Artist : Dizzy Mizz Lizzy
         Album : Rotator
Transcribed by : Mark Staffen
================================================================================

Legend
------

 h  = hammer-on
 p  = pull-off
 b  = bend
 r  = bend release
 /  = slide up/down
<5> = natural harmonic
[5] = artifical harmonic
 ~  = vibrato
 tr = trill


   Dm                                          Bb
Main riff Slut Main Riff Fill 1            Pre-Chorus

D|-------------------||---------------------||---------------------|------------|
A|----8---------8----||----8----------------||---------------------|------------|
F|-------------------||----------9--\--x--x-||-12---12--10---10--9-|---10--9--9-|
C|-7-----7---7-----7-||-7-----7--7--\--x--x-||--8----8---8----8--8-|----8--8--8-|
F|-------------------||---------------------||---------------------|------------|
C|-------------------||---------------------||---------------------|------------|


                                                     D
                                Slut Pre-chorus      Chorus

D|-------------|-----------------------|----------||---------------------|-----|
A|-------------|-----------------------|----------||---------------------|-----|
F|---9--9--x-x-|-12---12--10---10----9-|--10----9-||---------------------|-----|
C|---8--8--x-x-|-10---10--10---10---10-|--10---11-||-7---7---------7--8--|--8--|
F|-------------|-----------------------|----------||-7---7---------7--7--|--7--|
C|-------------|-----------------------|----------||---------0--0--------|-----|

                                             Slut Chorus    Fill 2

D|-------------|-------------------|-----------------------||-------------------|
A|-------------|-------------------|-----------------------||-------------------|
F|-------------|-------------------|-----------------------||-------------------|
C|--------8--9-|---9---------9---9-|----9------------9---9-||----9------------9-|
F|--------7--7-|---7---------7--10-|---10---10--10--10--10-||---10---10--10--10-|
C|--0--0-------|-------0--0--------|-----------------------||-------------------|


         G                     Bb                    A                 D (on C)
    Post Chorus                                                       1. x

D|----||---------------------|---------------------|-------------------|-------|
A|----||---------------------|---------------------|-------------------|--7----|
F|----||-4---4---5--7--5--4--|-7---7----8--9--8--7-|-6---x--9---\---7--|-------|
C|----||-5---5---5--5--5--5--|-8---8---h8--8--8--8-|-7---x--7---\------|-------|
F|----||---------------------|---------------------|-------------------|-------|
C|--7-||---------------------|---------------------|-------------------|-------|


                  D (on C)                                        Dm
 End Post chorus    2. x                    Slut Post-chorus Interlude A

D|----|-----------||---------|----------|---------|------------||---------------|
A|----|-----------||--7------|----------|--8------|---7--------||---------------|
F|--7-|---9-------||-------7-|---9----7-|-------7-|------------||---------------|
C|----|-----------||---------|----------|---------|------------||---------------|
F|----|---------5/||---------|----------|---------|---------5\-||---------------|
C|----|-----------||---------|----------|---------|------------||-0-0-0-0-3-0-0-|

                  sim.

D|---------------|----------------------------|-------------------------------|
A|---------------|----------------------------|-------------------------------|
F|---------------|----------------------------|-------------------------------|
C|---------------|----------------------------|-------------------------------|
F|---5--5--5-7---|----------------5--5--5-7---|-----------------5--5--5-7-----|
C|-0-----------6-|--0-0-0-3-0-0-0-----------6-|-0-0-0-0-3-0-0-0-----------6---|


                              Em
       Slut Interlude A       Interlude B

D|-------------------------||------------------------------|-------------------|
A|-------------------------||------------------------------|-------------------|
F|-------------------------||------------------------------|-------------------|
C|-------------------------||------------------------------|-------------------|
F|---------------------7b9-||-----------------7--7--7-9----|----------------7--|
C|--0-0-5---0-0-3--0-0-----||-2-2-2-2-5-2-2-2-----------8--|--2-2-2-5-2-2-2----|

                                                  Slut Interlude B     Interlude B2

D|-----------|------------------------------|-----------------------||---------|
A|-----------|------------------------------|-----------------------||---------|
F|-----------|------------------------------|-----------------------||---------|
C|-----------|------------------------------|-----------------------||---------|
F|-7--7-9----|-----------------7--7--7-9----|------2----------------||---------|
C|--------8--|-2-2-2-2-5-2-2-2-----------8--|--2-2-----2-2-5--2-2-0-||-2-2-2-2-|

D|----------------------|-----------------------------|------------------------|
A|----------------------|-----------------------------|------------------------|
F|----------------------|-----------------------------|------------------------|
C|---------5--5--5-7----|----------------5--5--5-7----|------------------5--5--|
F|-------------------7--|--------------------------7--|------------------------|
C|-5-2-2-2--------------|--2-2-2-5-2-2-2--------------|-2-2-2-2-5-2-2-2--------|

                 Slut Interlude B2    Fill 3                Fill 3B

D|-------|-------------------------||-----------------------||------------------|
A|-------|-------------------------||-----------------------||------------------|
F|-------|-------------------------||-----------------------||------------------|
C|-5-7---|-----------------5-7-----||-----------------------||------------------|
F|-----7-|--x-x-6---x-x-5----------||-----2-----------------||-7--x-x-6---x-x-5-|
C|-------|---------------------0---||-2-2-----2-2-5--2-2-2--||------------------|

              Guitarsolo

D|---------||----------|---------|------------------|-------|-------------------|
A|---------||----------|---------|------------------|-------|-------------------|
F|---------||-12b14----|-13b15---|-14b16---------10-|-----\-|------10-----12-12-|
C|--5-5----||----------|---------|------------------|-------|-12-------12-------|
F|---------||----------|---------|------------------|-------|-------------------|
C|------2--||----------|---------|------------------|-------|-------------------|
          /m wah wah


D|----------------|--------------------------------------|-----------------------|
A|----------------|--------------------------------------|----------10--------10-|
F|-10-------------|----------10-----12--10-12b14-10------|--12b14------12b14-----|
C|----12--12--10--|-12-x-x-x-----12-----------------12---|-----------------------|
F|----------------|--------------------------------------|-----------------------|
C|----------------|--------------------------------------|-----------------------|

D|-----------------------|------10---------------13-----|----------------------|
A|--------13-------------|--13-----13b15--13b15-----13\-|----------------------|
F|-12b14------12b14------|------------------------------|-12b14---12b13--r-p10-|
C|-----------------------|------------------------------|----------------------|
F|-----------------------|------------------------------|----------------------|
C|-----------------------|------------------------------|----------------------|

D|---------------------|-----------------------------------------|-------------|
A|--------10-13--------|-13b15----r--p10--------10-13--13b15-----|-13b14-----r-|
F|-12b14---------12-10-|-----------------------------------------|-------------|
C|---------------------|------------------12b14------------------|-------------|
F|---------------------|-----------------------------------------|-------------|
C|---------------------|-----------------------------------------|-------------|

                                          slut Guitarsolo    Fill 4

D|-------|-15--14---17---15--------|----------------------||--------------------|
A|-10----|-------------------17b19-|----r--p15--17------\-||-13b15--13p10-13b15-|
F|-------|-------------------------|----------------------||--------------------|
C|-------|-------------------------|----------------------||--------------------|
F|-------|-------------------------|----------------------||--------------------|
C|-------|-------------------------|----------------------||--------------------|
                                                         /m wah wah

                                             C A (onC#)
                                          Fill 5a

D|---------15b16---r--b2-|-r--b2--r--b2---||----------|---|---|-----------|----|
A|--13p10----------------|----------------||----------|---|---|-----------|----|
F|-----------------------|----------------||--10--9---|---|---|------11~--|----|
C|-----------------------|----------------||--10-11---|---|---|----\------|----|
F|-----------------------|----------------||----------|---|---|-----------|----|
C|-----------------------|----------------||----------|---|---|-----------|----|

                    Fill 5b                            Outro noise 1

D|------------------||--------|---|---|-----------|------||--10------10------10----|
A|------------------||--------|---|---|-----------|------||--13b15---13b15---13b15-|
F|-------------11---||--10--9-|---|---|-----------|------||------------------------|
C|--9--x-9---9----0-||--10-11-|---|---|-11~-------|------||------------------------|
F|------------------||--------|---|---|-----------|------||------------------------|
C|------------------||--------|---|---|-----------|------||------------------------|

D--10-----10-----10----|---|---|---|---|---|---10------10-----10-----10-----13----|
A--13b15--13b15--13b15-|---|---|---|---|---|---13b15---13b15--13b15--13b15--16b18-|
F----------------------|-%-|-%-|-%-|-%-|-%-|--------------------------------------|
C----------------------|---|---|---|---|---|--------------------------------------|
F----------------------|---|---|---|---|---|--------------------------------------|
C----------------------|---|---|---|---|---|--------------------------------------|

                       Slut outro noise 1         Outro noise 2

D-|--13-----13------13-----13-----13-----13----||-15------15------15-----15----|
A-|--16b18--16b18---16b18--16b18--16b18--16b18-||-18b20---18b20---18b20--18b20-|
F-|--------------------------------------------||------------------------------|
C-|--------------------------------------------||------------------------------|
F-|--------------------------------------------||------------------------------|
C-|--------------------------------------------||------------------------------|

                                                   Slut outro noise 2    Outro fyld

D|--15-----15----|-18---18---18--18--18--18-|-17------17-----17-------||-------|
A|--18b20--18b20-|-21---21---21--21--21--21-|-20b22---20b22--20b22----||-------|
F|---------------|--------------------------|-------------------------||-------|
C|---------------|--------------------------|-------------------------||-------|
F|---------------|--------------------------|-------------------------||-5---5-|
C|---------------|--------------------------|-------------------------||-------|

D|---------||---|---|---|---------------|---|---|--/----------------|------------|
A|---------||---|---|---|---------------|---|---|-9/10--11/12-13/14-|-15/-16--17-|
F|---------||-%-|-%-|-%-|---------------|-%-|-%-|-9/10--11/12-13/14-|-15/-16--17-|
C|---------||---|---|---|---------------|---|---|-9-10--11/12-13/14-|-15/-16--17-|
F|---5---5-||---|---|---|-7---7---7---7-|---|---|-------------------|------------|
C|---------||---|---|---|---------------|---|---|-------------------|------------|


         D (on C)                                                E (on D)
 Slut Outro fyld Outro

D|-------||--------------|-------------|-------------|-----------|-------------|
A|---16--||-----7--------|-------------|--8----------|-7---------|--9----------|
F|---16--||--7--------7--|--9-------7--|----------7--|---------9-|----------9--|
C|---16--||--------------|-------------|-------------|-----------|-------------|
F|-------||--------------|-------------|-------------|-----------|-------------|
C|-------||--------------|-------------|-------------|-----------|-------------|

                                                                    * slut Outro

D-|-----------------|-----------|-------------------|-------------|--------|-|
A-|--10p-9----------|--9--------|-9-10-11--12-13-14-|-15/---------|-16-----|-|
F-|---------9----9--|-----------|-9-10-11--12-13-14-|-15/---------|-16-----|-|
C-|-----------------|-----------|-9-10-11--12-13-14-|-15/---------|-16-----|-|
F-|-----------------|-----------|-------------------|-------------|--------|-|
C-|-----------------|-----------|-------------------|-------------|--------|-|
                                            *(Tabbogen siger "15", men 16 virker mere rigtigt)

Back-Bone-Beat
(Tim Christensen/Martin Nielsen)
spillet af Dizzy Mizz Lizzy
fra albummet Rotator
Tabbet af Mark Staffen for Meanguitar (http://welcome.to/meanguitar/)

F	O	R	M:

INTRO:
Main riff x 6

VERS:
Main riff x 7
Fill 1 x 1

PRE-CHORUS:
Prechorus x 1

CHORUS:
Chorus x 2
Fill 2 x 1 (erstatter sidste takt i "Chorus")

POST-CHORUS:

Postchorus x 1 (1. x)

Main riff x 4

VERS...

PRE-CHORUS...

CHORUS...

POST-CHORUS:

Post chorus x 1 (2. x)

INTERLUDE:

Interlude A x 2

Interlude B x 2 + Interlude B2 x 2

Fill 3+ 3b (erstatter sidste takt for henholdsvis "Interlude B" og "Interlude B2", begge 
x)


SOLO:

Guitarsolo x 1
(backing: 2. chorus)
Fill 4 (backing: Main riff x 4)

VERS...

PRECHORUS:

Prechorus x 1
Fill 5 a+b (erstatter fra og med sidste takt af "Prechorus")

CHORUS...

OUTRO:

Chorus x 2 (med små variationer i rytmen fra tid til anden) + Outronoise 1
Post chorus x 1 + Outro noise 2
Outro x 1 + Outrofyld


TEKST:

1. og 3. Vers:

Now she's touching my leg
Seems a little bit fake
But I'll let it go on for a minute

Now she's starting to cry
Well I'll see you byebye
So she's starting the discussion 'bout a payback

Prechorus:

Touch me when I'm falling
Catch me when I'm crawling

Chorus:

I need a little backbonebeat
'cause it might as well turn you on
I cheat with a backbonebeat
But it might as well turn you on

Post-chorus:

Life is going to take some time
And it's only for the social, social

2.vers

Well she's breaking my pain
like to do it again
I can see you getting colder in a winter

But there's no way to turn
I don't need no concern
So I'm kindly presenting you for my finger
Tap to rate this tab
 
# A B C D E F G H I J K L M N O P Q R S T U V W X Y Z