Song name
# A B C D E F G H I J K L M N O P Q R S T U V W X Y Z

Dj 3d - Man On Fire tab

DJ 3D - Man On Fire

3D Music 2013

Variation 1:

e|-------------------------------12----131313-15-13-12-12-|
B|-12----13-13---12-12-15-13-12---------------------------|
G|--------------------------------------------------------|
D|--------------------------------------------------------|
A|--------------------------------------------------------|
E|--------------------------------------------------------|

e|---------------------------------------------------------|
B|-15--15-15-17-15-13--131313--15-15-131313-12-10----------|
G|---------------------------------------------------------|
D|---------------------------------------------------------|
A|---------------------------------------------------------|
E|---------------------------------------------------------|


Variation 2:

e|--------------------------------1515151515-13-12-13--12-12-----|
B|-12----12-12-13-15-13-12-10-12---------------------------------|
G|---------------------------------------------------------------|
D|---------------------------------------------------------------|
A|---------------------------------------------------------------|
E|---------------------------------------------------------------|

e|-17-19-19-19-17-12---------------------------------------------|
B|----------------------15-151515/13-131313/12-121212------------|
G|---------------------------------------------------------------|
D|---------------------------------------------------------------|
A|---------------------------------------------------------------|
E|---------------------------------------------------------------|


Chord Pattern:

Dm Am E Am (reapeated throughout the song)


http://www.reverbnation.com/dj3dmusic
https://soundcloud.com/dj_3d
Tap to rate this tab
# A B C D E F G H I J K L M N O P Q R S T U V W X Y Z