Song name
# A B C D E F G H I J K L M N O P Q R S T U V W X Y Z

Dj Ashba - Mi Amor tab

DJ ASHBA - Mi Amor
by Mcmartini
(Mi Amor / Sweet Child O' Mine by D.j. Ashba - 7m25s on Youtube)


   0:04
D#|-------------------------------------------------------------------------------------|
A#|----------------------------------------------8-8/11-9-9-8-8br-----------------------|
F#|------10h12--10h12~--10-10/12\10--8--------10------------------10~-------------------|
C#|------------------------------------10--10-------------------------------------------|
G#|-------------------------------------------------------------------------------------|
D#|--15\--------------------------------------------------------------------------------|
                                                         
D#|-------------------------------------------------------------------------------------|
A#|------11-------8~--9~--------11----9-9-8-8br-----------------------------------------|
F#|----7---10~--7---7-----8-10-----10-----------11-10-8-10br-8-10-8---------------------|
C#|--8------------------8---------------------------------------------------------------|
G#|-------------------------------------------------------------------------------------|
D#|-------------------------------------------------------------------------------------|
  
   0:20
D#|---------------------------------------------------------11--------------------------|
A#|----------------------------------------------8-8/11-9-9----9~-----------------------|
F#|--10h12--10h12~--10-10/12\10--8--------10--------------------------------------------|
C#|--------------------------------10--10-----------------------------------------------|
G#|-------------------------------------------------------------------------------------|
D#|-------------------------------------------------------------------------------------|

D#|-----8-8/10----10/11---11p13~----13\-----------11-10-8-------------------------------|
A#|--/9--------11-------11-------11------9-8-8br----------11-9-8------------------------|
F#|-------------------------------------------------------------------------------------|
C#|-------------------------------------------------------------------------------------|
G#|-------------------------------------------------------------------------------------|
D#|-------------------------------------------------------------------------------------|
   
   0:34
D#|--11-10--------11-10-------------------------------11--------------------------------|
A#|--------11-----------11---------------13----11-9-9----9~-----------------------------|
F#|-----------12~----------12~-----10h12----12------------------------------------------|
C#|-----------------------------10------------------------------------------------------|
G#|-------------------------------------------------------------------------------------|
D#|-------------------------------------------------------------------------------------|

D#|--10-8---------10-8------------------------------------------------------------------|
A#|-------11-----------11-------------11----9-8-8-9-8h9p8h9-8h9p8h9p8h9p8h9p8h9p8h9p8\--|
F#|----------10~----------10~----8h10----10---------------------------------------------|
C#|---------------------------8---------------------------------------------------------|
G#|-------------------------------------------------------------------------------------|
D#|-------------------------------------------------------------------------------------|
  
   0:50
D#|--------------------------------13br~--13-11-13-11-10h11p10h11p10h11p10h11p10--------|
A#|------13-15-15b-15~\------13-15------------------------------------------------------|
F#|--/12-----------------/13------------------------------------------------------------|
C#|-------------------------------------------------------------------------------------|
G#|-------------------------------------------------------------------------------------|
D#|-------------------------------------------------------------------------------------|

D#|--8h10p8h10p8h10p8-6h8p6h8p6h8p6h8p6-4\----/16-15-15br-13br11-13br11-13-11-----------|
A#|---------------------------------------------------------------------------13--------|
F#|-------------------------------------------------------------------------------------|
C#|-------------------------------------------------------------------------------------|
G#|-------------------------------------------------------------------------------------|
D#|-------------------------------------------------------------------------------------|

   1:04
D#|----------------15-------------------------------------15----13----11h13p11----------|
A#|---/13-13----13----13-13----------13-15-15b-11-9-11-------------------------13-------|
F#|----------13-------------13----13-------------------12----12----12-------------------|
C#|----------------------------13-------------------------------------------------------|
G#|-------------------------------------------------------------------------------------|
D#|-------------------------------------------------------------------------------------|

D#|------13-----------13----11----10h11p10----------11-10h11p10-8-----------------------|
A#|--13b----13br11-------------------------11--9-9----------------11--------------------|
F#|----------------10----10----10----------10--8-8--------------------------------------|
C#|-------------------------------------------------------------------------------------|
G#|-------------------------------------------------------------------------------------|
D#|-------------------------------------------------------------------------------------|

   1:19
D#|-------------------------------------------------------------------------------------|
A#|-----13-15-15b-15~----13-15-16b-16--------------13h15~-13h15~-13----------16b-16-----|
F#|--12---------------12--------------13~----13-15------------------15-13-12------------|
C#|---------------------------------------15--------------------------------------------|
G#|-------------------------------------------------------------------------------------|
D#|-------------------------------------------------------------------------------------|

D#|-------------------------------------------------------------------------------------|
A#|--13---------------------------------------------------------------------------------|
F#|-----13~-13~-15-13-12-10~-10~-8-7h8p7h8p7h8p7h8p7h8p7p5h7p5h7p5h7p5-4b---------------|
C#|-------------------------------------------------------------------------------------|
G#|-------------------------------------------------------------------------------------|
D#|-------------------------------------------------------------------------------------|

   1:35
D#|---------------------------------------------------------11--------------------------|
A#|----------------------------------------------8-8/11-9-9----9~-----------------------|
F#|--10h12--10h12~--10-10/12\10--8--------10--------------------------------------------|
C#|--------------------------------10--10-----------------------------------------------|
G#|-------------------------------------------------------------------------------------|
D#|-------------------------------------------------------------------------------------|

D#|-----8-8/10----10/11---11p13~----13\-----------11-10-8-------------------------------|
A#|--/9--------11-------11-------11------9-8-8br----------11-9-8------------------------|
F#|-------------------------------------------------------------------------------------|
C#|-------------------------------------------------------------------------------------|
G#|-------------------------------------------------------------------------------------|
D#|-------------------------------------------------------------------------------------|
   
   1:49
D#|--11-10--------11-10-------------------------------11--------------------------------|
A#|--------11-----------11---------------13----11-9-9----9~-----------------------------|
F#|-----------12~----------12~-----10h12----12------------------------------------------|
C#|-----------------------------10------------------------------------------------------|
G#|-------------------------------------------------------------------------------------|
D#|-------------------------------------------------------------------------------------|

D#|--10-8---------10-8------------------------------------------------------------------|
A#|-------11-----------11-------------11----9-8-8-9-8h9p8h9-8h9p8h9p8h9p8h9p8h9p8h9p8\--|
F#|----------10~----------10~----8h10----10---------------------------------------------|
C#|---------------------------8---------------------------------------------------------|
G#|-------------------------------------------------------------------------------------|
D#|-------------------------------------------------------------------------------------|

   2:05
D#|--------------------------------13br~--13-11-13-11-10h11p10h11p10h11p10h11p10--------|
A#|------13-15-15b-15~\------13-15------------------------------------------------------|
F#|--/12-----------------/13------------------------------------------------------------|
C#|-------------------------------------------------------------------------------------|
G#|-------------------------------------------------------------------------------------|
D#|-------------------------------------------------------------------------------------|

D#|--8h10p8h10p8h10p8-6h8p6h8p6h8p6h8p6-4\----/16-15-15br-13br11-13br11-13-11-----------|
A#|---------------------------------------------------------------------------13--------|
F#|-------------------------------------------------------------------------------------|
C#|-------------------------------------------------------------------------------------|
G#|-------------------------------------------------------------------------------------|
D#|-------------------------------------------------------------------------------------|

   2:20
D#|----------------15-------------------------------------15----13----11h13p11----------|
A#|---/13-13----13----13-13----------13-15-15b-11-9-11-------------------------13-------|
F#|----------13-------------13----13-------------------12----12----12-------------------|
C#|----------------------------13-------------------------------------------------------|
G#|-------------------------------------------------------------------------------------|
D#|-------------------------------------------------------------------------------------|

D#|------13-----------13----11----10h11p10----------11-10h11p10-8-----------------------|
A#|--13b----13br11-------------------------11--9-9----------------11--------------------|
F#|----------------10----10----10----------10--8-8--------------------------------------|
C#|-------------------------------------------------------------------------------------|
G#|-------------------------------------------------------------------------------------|
D#|-------------------------------------------------------------------------------------|

   2:34
D#|-------------------------------------------------------------------------------------|
A#|-----13-15-15b-15~----13-15-16b-16--------------13h15~-13h15~-13----------16b-16-----|
F#|--12---------------12--------------13~----13-15------------------15-13-12------------|
C#|---------------------------------------15--------------------------------------------|
G#|-------------------------------------------------------------------------------------|
D#|-------------------------------------------------------------------------------------|

D#|------------------------------------------------16-15-20-18-15-16-13-15--------------|
A#|--13--------------------------------13-12-16-15-------------------------13h15p13-15b-|
F#|-----13~-13~-15-13-12-10~-10~-8--12--------------------------------------------------|
C#|-------------------------------------------------------------------------------------|
G#|-------------------------------------------------------------------------------------|
D#|-------------------------------------------------------------------------------------|

D#|-------------------------------------------------------------------------------------|
A#|-15----13-15-16b-16--------------13h15~-13h15~-13----------16b-16-13-----------------|
F#|----12--------------13~----13-15------------------15-13-12-----------13~-13~-15-13-12|
C#|-----------------------15------------------------------------------------------------|
G#|-------------------------------------------------------------------------------------|
D#|-------------------------------------------------------------------------------------|

D#|-------------------------------------------------------------------------------------|
A#|-------------------------------------------------------------------------------------|
F#|-10~-10~-8-7h8p7h8p7h8p7h8p7h8p7p5h7p5h7p5h7p5-4b----5~------------------------------|
C#|-------------------------------------------------------------------------------------|
G#|-------------------------------------------------------------------------------------|
D#|-------------------------------------------------------------------------------------|

   3:19
D#|-------------------------------------------------------------------------------------|
A#|-------------------------------------------------------------------------------------|
F#|-------------------------------------------------------------------------------------|
C#|-------------------------------------------------------------------------------------|
G#|-3-3-3-3-3-3-3-3-3-3-3-3-3-5-5-5-5-5-5-5-6-6-6-6-6-10-10-10-10-10-10-10-10-10--------|
D#|-------------------------------------------------------------------------------------|

D#|-------------------------------------------------------------------------------------|
A#|-------------------------------------------------------------------------------------|
F#|-------------------------------------------------------------------------------------|
C#|-------------------------------------------------------------------------------------|
G#|-6-6-6-6-6-6-3-3-3-3-3-3-3-3-3-3-3-3-5-5-5-5-5-5-6-6-6-6-6-6-6-11-11-11-11-11-11-11--|
D#|-------------------------------------------------------------------------------------|

D#|-------------------------------------------------------------------------------------|
A#|-------------------------------------------------------------------------------------|
F#|-------------------------------------------------------------------------------------|
C#|-------------------------------------------------------------------------------------|
G#|-10-10-10-10-10-11-11-11-11-13-13-13-13-13-11-11-11-11-10-10-10-6-6-6-5-5-5-6-6-6----|
D#|-------------------------------------------------------------------------------------|

D#|-------------------------------------------------------------------------------------|
A#|-------------------------------------------------------------------------------------|
F#|-------------------------------------------------------------------------------------|
C#|-------------------------------------------------------------------------------------|
G#|-8-8-8-8-8-10-10-10-10-10-8-8-8-8-8-8-8-8-6-6-6-6-6-6-8-8-8-8-8-8-6-6-6-5-5-5--------|
D#|-------------------------------------------------------------------------------------|

D#|-------------------------------------------------------------------------------------|
A#|-------------------------------------------------------------------------------------|
F#|--------------------------------------5-5-5-5-5-5-5-5-5-5-7-7-7-7-7-7-7-7-8-8-8-8-8--|
C#|-------------------------------------------------------------------------------------|
G#|-3-3-3-3--15///////////////////////5-------------------------------------------------|
D#|-------------------------------------------------------------------------------------|

D#|-------------------------------------------------------------------------------------|
A#|-------------------------------------------------------------------------------------|
F#|-12-12-12-12-12-12-12-12-8-8-8-8-8-5-5-5-5-5-7-7-7-7-8-8-8-8-13-13-13-13-13-13-13----|
C#|-------------------------------------------------------------------------------------|
G#|-------------------------------------------------------------------------------------|
D#|-------------------------------------------------------------------------------------|

D#|-------------------------------------------------------------------------------------|
A#|-------------------------------------------------------------------------------------|
F#|-12-12-12-12-12-13-13-13-13-15-15-15-15-13-13-13-12-12-12-8-8-8-8-7-7-7-8-8-8-8------|
C#|-------------------------------------------------------------------------------------|
G#|-------------------------------------------------------------------------------------|
D#|-------------------------------------------------------------------------------------|

D#|-------------------------------------------------------------------------------------|
A#|-------------------------------------------------------------------------------------|
F#|-10-10-10-10-10-12-12-12-12-10-10-10-10-8-8-8-8-8-10-10-10-10-8-8-8-8-7-8-7-8-7-8----|
C#|-------------------------------------------------------------------------------------|
G#|-------------------------------------------------------------------------------------|
D#|-------------------------------------------------------------------------------------|

D#|-------------------------------------------------------------------------------------|
A#|-------------------------------------------------------------------------------------|
F#|-7-8-7-4h5p4h5p4h5p4h5p4h5p4h5p4-----------------------------------------------------|
C#|-------------------------------------------------------------------------------------|
G#|-------------------------------------------------------------------------------------|
D#|-------------------------------------------------------------------------------------|

   3:50
D#|------------------------------------------------------15----13-----11h13p11----------|
A#|--/13----13-13----13-13----------13-15-15b-11-9-11--------------------------13-------|
F#|------13-------13-------13----13-------------------12----12----12--------------------|
C#|---------------------------13--------------------------------------------------------|
G#|-------------------------------------------------------------------------------------|
D#|-------------------------------------------------------------------------------------|

D#|------13-----------13----11----10h11p10----------11-10h11p10-8-----------------------|
A#|--13b----13br11-------------------------11--9-9----------------11--------------------|
F#|----------------10----10----10----------10--8-8--------------------------------------|
C#|-------------------------------------------------------------------------------------|
G#|-------------------------------------------------------------------------------------|
D#|-------------------------------------------------------------------------------------|

   4:03
D#|-------------------------------------------------------------------------------------|
A#|-----13-15-15b-15~----13-15-16b-16--------------13h15~-13h15~-13----------16b-16-----|
F#|--12---------------12--------------13~----13-15------------------15-13-12------------|
C#|---------------------------------------15--------------------------------------------|
G#|-------------------------------------------------------------------------------------|
D#|-------------------------------------------------------------------------------------|

D#|------------------------------------------------16-15-20-18-15-16-13-15--------------|
A#|--13--------------------------------13-12-16-15-------------------------13h15p13-15b-|
F#|-----13~-13~-15-13-12-10~-10~-8--12--------------------------------------------------|
C#|-------------------------------------------------------------------------------------|
G#|-------------------------------------------------------------------------------------|
D#|-------------------------------------------------------------------------------------|

D#|-------------------------------------------------------------------------------------|
A#|--15----15-13------------------13h15~-13h15~-13------------------------13-13---------|
F#|-----12-------13~-13~----13-15------------------15-13-12~-12~-13-15-13-------15-13-12|
C#|---------------------15--------------------------------------------------------------|
G#|-------------------------------------------------------------------------------------|
D#|-------------------------------------------------------------------------------------|

D#|-------------------------------------------------------------------------------------|
A#|-------------------------------------------------------------------------------------|
F#|--10~-10~-8-7h8p7h8p7h8p7h8p7h8p7h8p7p5h7p5h7p5h7p5h7p5h7p5-4h5p4h5p4h5p4h5p4h5p4h5p4|
C#|-------------------------------------------------------------------------------------|
G#|-------------------------------------------------------------------------------------|
D#|-------------------------------------------------------------------------------------|

D#|-------------------------------------------------------------------------------------|
A#|-------------------------------------------------------------------------------------|
F#|--8h10p8h10p8h10p8h10p8h10p8h10p8-5h7p5h7p5h7p5h7p5h7p5h7p5-4h5p4h5p4h5p4h5p4h5p4h5p4|
C#|-------------------------------------------------------------------------------------|
G#|-------------------------------------------------------------------------------------|
D#|-------------------------------------------------------------------------------------|

D#|-------------------------------------------------------------------------------------|
A#|-------------------------------------------------------------------------------------|
F#|-5-----------------------------------------------------------------------------------|
C#|-5-----------------------------------------------------------------------------------|
G#|-3-----------------------------------------------------------------------------------|
D#|-------------------------------------------------------------------------------------|

Enjoy!
Tap to rate this tab
 
# A B C D E F G H I J K L M N O P Q R S T U V W X Y Z