Song name
# A B C D E F G H I J K L M N O P Q R S T U V W X Y Z

Dj Champion - No Heaven tab

This is a pretty repetitive song and pretty easy too. Enjoy!
There werent any realyy good tabs so i decided to make one

Intro (palm muted)  Chorus is the same without palm muting
e|--------------------------------------------------------------|
b|--------------------------------------------------------------|
g|--------------------------------------------------------------|
d|--------------------------------------------------------------|
a|-----5/6/7----5/6/7----5/6/7-----5/6/7------------------------|
e|--0-0------0-0------0-0------7-5------------------------------|


This part pops in a little later
e|10/12-12---10/12-12--10/12-12---12----------------------------|
b|----------------------------------12\10-----------------------|
g|--------------------------------------------------------------|
d|--------------------------------------------------------------|
a|--------------------------------------------------------------|
e|--------------------------------------------------------------|

If you want to put in more guitars or a slightly harder part then use
e|--------------------------------------------------------------|
b|--------------------------------------------------------------|
g|--------------------------------------------------------------|
d|--------------------------------------------------------------|
a|-----5/6/7-----5/6/7-----5/6/7---9\7--5/6/7-------------------|
e|-0-0-------0-0-------0-0---------7\5--------------------------|
Tap to rate this tab
 
# A B C D E F G H I J K L M N O P Q R S T U V W X Y Z