Dj Mangoo - Eurodancer tab

-------------------------------------------------------------------------------
			     Eurodancer - DJ Mangoo
-------------------------------------------------------------------------------
Tabbed by: Zach Lippe
Email: Zach1912@live.com

Tuning: Standard

e|---------------------------------5---------------4-------2--|
B|-------------------------2---------------2------------------|
G|------------------------------------------------------------|
D|-----------------4------------------------------------------|
A|---------4--------------------------------------------------|
E|-2----------------------------------------------------------|

e|-------------------------10------10--------------9----------|
B|-----------------------------------------10--------------10-|
G|------------------------------------------------------------|
D|-----------------12-----------------------------------------|
A|---------12-------------------------------------------------|
E|-10---------------------------------------------------------|

e|-------------------------5-------5---------------7-------4--|
B|-----------------------------------------5------------------|
G|------------------------------------------------------------|
D|-----------------7------------------------------------------|
A|---------7--------------------------------------------------|
E|-5----------------------------------------------------------|

e|-------------------------4-------4---------------5-------2--|
B|-----------------------------------------5------------------|
G|------------------------------------------------------------|
D|-----------------2------------------------------------------|
A|---------2--------------------------------------------------|
E|-0----------------------------------------------------------|


************************************

| /   slide up
| \   slide down
| h   hammer-on
| p   pull-off
| ~   vibrato
| +   harmonic
| x   Mute note
| b   Bend
| pb  Pre-bend
| br  Bend release
| pbr Pre-bend release
| brb Bend release bend

************************************

Enjoy!
Tap to rate this tab
 
# A B C D E F G H I J K L M N O P Q R S T U V W X Y Z