Song name
# A B C D E F G H I J K L M N O P Q R S T U V W X Y Z

Dj Mangoo - Eurodancer tab

----------------------------------------------------------------------------
			     Euro Dancer - Dj Mangoo
----------------------------------------------------------------------------
Tabbed by:JK63
Email:jrk-1993@hotmail.com

Tuning: standard
intro and most of song
e|-------------------------------------------------------------------------|
B|------------------33-22--------------------------------------------------|
G|-222222-11--------------222222-44--111111--------------------------------|
D|------------4444--------------------------22-----------------------------|
A|-------------------------------------------------------------------------|
E|-------------------------------------------------------------------------|

the little bridge part has somthing to do with these two note

e|-------------------------------------------------------------------------|
B|-------------------------------------------------------------------------|
G|-------------------------------------------------------------------------|
D|-------------------------------------------------------------------------|
A|---2----4----------------------------------------------------------------|
E|-------------------------------------------------------------------------|
Tap to rate this tab
 
# A B C D E F G H I J K L M N O P Q R S T U V W X Y Z