Song name
# A B C D E F G H I J K L M N O P Q R S T U V W X Y Z

Dj Manian - Colors Of The Rainbow tab

e-----------------------------------------------------------------|
b-13-15-16-16-15-13-13--13---------13-15-16-16-15-13-16-18--15-16-|
g---------------------15--15-10-12------------------------15------|
d-----------------------------------------------------------------|
a-----------------------------------------------------------------|
e-----------------------------------------------------------------|

e-----------------------------------------------------------------|
b-13-15-16-16-15-13-13--13----------------------------------------|
g---------------------15--15-10-12-12-10-8-8-12-12-10-10-12-10-10-|
d-----------------------------------------------------------------|
a-----------------------------------------------------------------|
e-----------------------------------------------------------------|



http://www.manian.de/
Tap to rate this tab
# A B C D E F G H I J K L M N O P Q R S T U V W X Y Z