Song name
# A B C D E F G H I J K L M N O P Q R S T U V W X Y Z

Dj Markski - Angel Falls tab

-------------------------------------------------------------------------------
			     Angel Falls - DJ Markski

                             http://www.djmarkski.com
-------------------------------------------------------------------------------
Tabbed by: Malcolm "Mota" Malaowala
Email: malaowala@yahoo.com

Tuning: Standard

e|---------------------------------|
B|----5h6-----3h5-----1h3-----6p5--|
G|---7-------5-------3-------5-----|
D|--7-------5-------3-------5------|
A|-5-------3-------1-------3-------|
E|---------------------------------|

e|------19------------17------------------17-----|
B|-17~-----20-19-17--------------------20----19--|
G|-----------------------18-19---19-16-----------|
D|-----------------------------------------------|
A|-----------------------------------------------|
E|-----------------------------------------------|


| /  slide up
| \  slide down
| h  hammer-on
| p  pull-off
| ~  vibrato
| +  harmonic
| x  Mute note
===============================================================================
Tap to rate this tab
# A B C D E F G H I J K L M N O P Q R S T U V W X Y Z