Dj Marky - Lk tab

-----------------------------------------------------------------------------
LK - Dj Marky
-----------------------------------------------------------------------------

Tabbed by: Moritz König
Email: moritzkoenig@gmail.com

Tuning: capo on 4th fret

pattern continues throughout the song

e|------0---3-0---0-3------------------------2-5-----2-5--2-------------------|
B|-----1--------2-----0----0-----0----------3-------3---------3--3--3----0--3-|
G|----2------------------2-----2-----2-----2-------2----------0--0--0----0--0-|
D|---2------------------------------------4-------4---------------------------|
A|--0------------------------------------2-------2----------------------------|
E|----------------------0-----0-----0-------------------------0--0--0---------|


artist: http://djmarky.uol.com.br/
Tap to rate this tab
 
# A B C D E F G H I J K L M N O P Q R S T U V W X Y Z