Song name
# A B C D E F G H I J K L M N O P Q R S T U V W X Y Z

Dj Quik - How Come tab

e-|5--3--0--1--0-------5--3--0----------------------------------------------|
b-|----------------1------------5--3---1--1--1-----3--1--0--0--1--0---------|
g-|-------------------------------------------------------------------2--0--|
d-|-------------------------------------------------------------------------|
a-|-------------------------------------------------------------------------|
E-|-------------------------------------------------------------------------|

Chorus
e-|5--3--0-----1--0-----5--3--0----------------------------------------------|
b-|---------3--------1-----------5--3---1--1--1----3--1--0--0--1--0----------|
g-|------------------------------------------------------------------2--0----|
d-|--------------------------------------------------------------------------|
a-|--------------------------------------------------------------------------|
E-|--------------------------------------------------------------------------|
Tap to rate this tab
# A B C D E F G H I J K L M N O P Q R S T U V W X Y Z