Song name
# A B C D E F G H I J K L M N O P Q R S T U V W X Y Z

Dj Screw - Knocking Pictures Off The Wall tab

-------------------------------------------------------------------------------
			   R.I.P DJ SCREW 
-------------------------------------------------------------------------------
Tabbed by: Kevo
Email:

Tuning: standard


You can do the chords
Bmin, Gmaj, Amaj, and back to Bmin.
I do it like this with a little tremolo or phaser

e|-----x--10--x--10-----x-7--x-9----x-10-----------------------------------|
B|-----x--12--x--12-----x-8--x-10---x-12-----------------------------------|
G|-----x--11--x--11-----x-7--x-9----x-11-----------------------------------|
D|-----x--12--x--12-----x-9--x-11---x-12-----------------------------------|
A|-------------------------------------------------------------------------|
E|-------------------------------------------------------------------------|

MELODY
e|----------7--11---7-----------7--11--7-----7---------------9---7---------|
B|---7--11---------------7--11------------------11---7---------------------|
G|-------------------------------------------------------------------------|
D|-------------------------------------------------------------------------|
A|-------------------------------------------------------------------------|
E|-------------------------------------------------------------------------|

Youtube Dj Screw knocking pictures off the wall
Tap to rate this tab
# A B C D E F G H I J K L M N O P Q R S T U V W X Y Z