Song name
# A B C D E F G H I J K L M N O P Q R S T U V W X Y Z

Dj Shadow - Building Steam With A Grain Of Salt tab

For two guitars. If you play guitar two alone, you'll still get a fairly good 
general impression of the song.
Arpeggio on guitar one is repeated throughout, but shown to give a better idea of 
the timing on guitar two.

Part one
-Guitar 1
e|-3---6---|-3---6---|-3---6---|-3---6---|
B|---1---1-|---1---1-|---1---1-|---1---1-|
G|---------|---------|---------|---------|
D|---------|---------|---------|---------|
A|---------|---------|---------|---------|
E|---------|---------|---------|---------|
-Guitar 2
e|---------|---------|---------|---------|
B|---------|---------|---------|---------|
G|---------|-----1---|-0-------|---------|
D|---------|---------|---------|---------|
A|-3-------|---------|---------|---------|
E|---------|---------|---------|---------|

Part two
 Guitar 1
e|-3---6---|-3---6---|-3---6---|-3---6---|
B|---1---1-|---1---1-|---1---1-|---1---1-|
G|---------|---------|---------|---------|
D|---------|---------|---------|---------|
A|---------|---------|---------|---------|
E|---------|---------|---------|---------|
 Guitar 2
e|---------|---------|---------|---------|
B|---------|---------|---------|---------|
G|---------|-----1---|-3-------|---------|
D|---------|---------|---------|-3-------|
A|-3-------|---------|---------|---------|
E|---------|---------|---------|---------|

tabbed by Quentin Blair [qntnblr@gmail.com]
Tap to rate this tab
 
# A B C D E F G H I J K L M N O P Q R S T U V W X Y Z