Song name
# A B C D E F G H I J K L M N O P Q R S T U V W X Y Z

Dj Shadow - My Guru tab

By Kareem Elmosely
Superkemo1231@hotmail.com
My Guru - DJ Shadow ---- guitar Tab
Heall Jeah

This is my first tab ever...here it goes.........Play the first part 2 times then play
the second part till the end of tha song.......this is as close as it gets......u have
to listen to the song to get it right.


e|----------------------------------------|
B|----0---------0-------------------------|
G|-10----10-10----10-11-10-8-11-10-18-11--|
D|----------------------------------------|       X2
A|----------------------------------------|
E|----------------------------------------|


e|----------------------------------------------------------------|
B|----0---------0-------------------------------------------------|
G|-10----10-10----10-11-10-8-11-10-8-11-10-8-6-5-6-5\6-5\6-5\6-5-3|
D|----------------------------------------------------------------| till the 
A|----------------------------------------------------------------|   end
E|----------------------------------------------------------------|
Tap to rate this tab
 
# A B C D E F G H I J K L M N O P Q R S T U V W X Y Z