Song name
# A B C D E F G H I J K L M N O P Q R S T U V W X Y Z

Dj Shadow - You Made It tab

Hey everyone,

I figured this out from listening to the song.  Hopefully you guys like it.  I'm pretty
this is close to, if not already, 100% correct.  You can understand the tab better if
are listening to the song at the same time.

Basically you can play the Intro through the entire song:


Tuning:  e,B,G,D,A,E (Standard)

DJ Shadow featuring singer Chris James of "Stateless."
From the album "The Outsider"

Enjoy!

Part 1
e]--------------------------------------------|
B]--------------------------------------------|
G]---------------------------------------7----|
D]--7-6-7-6-----------------7-6-7-6----7------|
A]----------7h4-7-7-7-7-7-----------7-5-------|
E]--------------------------------------------|

e]-----------------------------------------|
B]-----------------------------------------|
G]--------------------------------------7--|
D]--7-6-7-6---------------7-6-7-6-----7----|
A]----------7h4-7-7h9h7-----------7-5------|
E]-----------------------------------------|

Part 2
e]-------------------------------------------------|
B]-------------------------------------------------|
G]--7-6--------7-6-7-9-11---7-6--------7-6-7-9-11--|
D]------9-7-7-------------------9-7-7--------------|
A]-------------------------------------------------|
E]-------------------------------------------------|

e]-----------------------------------------------------|
B]-----------------------------------------------------|
G]--6--6-6-6--6-6-6------7-9------------------7-7-6----| x2
D]-------------------9-7------9--9-9-9--9-9----------9-|
A]-----------------------------------------------------|
E]-----------------------------------------------------|

Part 3
Leading into repeat and lyrics
e]------------------------------------------------------------]
B]------------------------------------------------------------]
G]--6--6-6-6--6-6-6--6-6-6--6-6-6--6-6-6--6-6-6--6-6-6--6-6-6-]
D]------------------------------------------------------------]
A]------------------------------------------------------------]
E]------------------------------------------------------------]

Like I said, you can play that through the whole song.

The singer is Chris James who is the lead singer of the band "Stateless."  DJ Shadow
with many artists that work in Rock, Rap, R&B, Electronica, and so on.  So, if you are
for another song by DJ Shadow like this, you might not find one (although he worked with 
James on another song).  Check out the band Stateless for more songs like this.  To me,
is like a fusion of Coldplay and Switchfoot.  It is pretty sweet.

This is a great song and I hope this tab helps!

Peace,

J-Priceless
Tap to rate this tab
# A B C D E F G H I J K L M N O P Q R S T U V W X Y Z