Song name
# A B C D E F G H I J K L M N O P Q R S T U V W X Y Z

Dj Shadow - Organ Donor tab

-------------------------------------------------------------------------------
			     Organ Donor - DJ Shadow
-------------------------------------------------------------------------------
Tabbed by: Huw Gurden
Email:shredthewood@hotmail.co.uk

Tuning: E Standard

I think I have pinned down where it is on the fretboard. if it sounds dodgy just try it 
in different places. Apart from that you can play it either of the two following ways. I 
yet decided which one is right. Anyway for all you Shadow fans out there...

e|---------------------------------------------------------------------------|
B|---------------------------------------------------------------------------|
G|---------------------------------------------------------------------------|
D|---------------------------------------------------------------------------|
A|---7-5-7---5---------------------------------------------------------------|
E|-5-------8---7-8-----------------------------------------------------------|

e|---------------------------------------------------------------------------|
B|---------------------------------------------------------------------------|
G|---------------------------------------------------------------------------|
D|---------------------------------------------------------------------------|
A|---7-5-7---7---------------------------------------------------------------|
E|-5-------8---7-8-----------------------------------------------------------|

Unfortunately I couldn't figure out the organ solo...

| /  slide up
| \  slide down
| h  hammer-on
| p  pull-off
| ~  vibrato
| +  harmonic
| x  Mute note
===============================================================================
Tap to rate this tab
# A B C D E F G H I J K L M N O P Q R S T U V W X Y Z