Song name
# A B C D E F G H I J K L M N O P Q R S T U V W X Y Z

Dj Shantel Bucovina - Bucovina tab

Anyone who knows Bucovina Club will regognize the melody. Enjoy!

E 10-10-10-10-13-11-10------------10-10-11-10-8-10------------|
H ---------------------10-10-8---------------------11-10------|
G ------------------------------------------------------------|
D ------------------------------------------------------------|
A ------------------------------------------------------------|
E ------------------------------------------------------------|

E ---8-11-10-8-10-----------------2-2---2-2-3------------------|
H 10--------------11-10---3-3-3-3-----3------------------------|
G -------------------------------------------------------------|
D -------------------------------------------------------------|
A -------------------------------------------------------------|
E -------------------------------------------------------------|


alternatively:

E ----------------------------------------------------------------|
H ----------------------------------------------------------------|
G 7-7-7-7-10-8-7---------7-7-8-7-5-7---------5-8-7-5-7------------|
D ---------------7-7-5---------------8-7---7-----------8-7--------|
A ----------------------------------------------------------------|
E ----------------------------------------------------------------|

E ---------------------------------------------------------------|
H ---------------------------------------------------------------|
G ---------------------------------------------------------------|
D 0-0-0-0-4-4-0-4-4-5--------------------------------------------|
A ---------------------------------------------------------------|
E ---------------------------------------------------------------|
Tap to rate this tab
 
# A B C D E F G H I J K L M N O P Q R S T U V W X Y Z