Song name
# A B C D E F G H I J K L M N O P Q R S T U V W X Y Z

Dj Tiesto - Lethal Industry tab

Alright the other version of the song that is tabbed here consists of the correct 
of whole and half steps but is in the wrong key :( so I decided to re-tab it and I am 100% 
this is correct

e|--------------------------------------------|
B|--------------------------------------------|
G|----------------9--------9------10-10-10----|
D|--7-7-10-7--7-7---7--7-7---7-10----------10-|
A|--------------------------------------------|
E|--------------------------------------------|

e|------------------------------------------------------|
B|-----------------8-8-8---10-10-10-10-8-10-10-10-10-10-|
G|9-9-9-9-10-10-10-------9------------------------------|
D|------------------------------------------------------|
A|------------------------------------------------------|
E|------------------------------------------------------|

Then just repeat many times
Tap to rate this tab
# A B C D E F G H I J K L M N O P Q R S T U V W X Y Z