Song name
# A B C D E F G H I J K L M N O P Q R S T U V W X Y Z

Dj Unk - Walk It Out tab

E----------------------18-18-19-19-19-19-19-19-19-19-|
B----16-16-16-16-16-16-------------------------------|
G----------------------------------------------------|  x8
D----------------------------------------------------|
A----------------------------------------------------|
E----------------------------------------------------|


"now everybody leanin"
E------------------------------|
B------------------------------|
G------------------------------|  x8
D------------------------------|
A-------------13-14-14-14-13---|
E----11-11-11------------------|

then back to the begining

and thats it
Tap to rate this tab
# A B C D E F G H I J K L M N O P Q R S T U V W X Y Z