Song name
# A B C D E F G H I J K L M N O P Q R S T U V W X Y Z

Django Django - Default tab

-------------------------------------------------------------------------------
                             Default - Django Django
-------------------------------------------------------------------------------
http://www.djangodjango.co.uk/
Tabbed by: Tom Toulouse
Email: toulouse95@gmail.com

Tuning: Standard

e|---------------------------------------------------------------------------|
B|---------------------------------------------------------------------------|
G|---------------------------------------------------------------------------|
D|-3-3-3-3-3-3--6------------------------------------------------------------|
A|-3-3-3-3-3-3--6------------------------------------------------------------|
E|-1-1-1-1-1-1--4------------------------------------------------------------|

e|---------------------------------------------------------------------------|
B|---------------------------------------------------------------------------|
G|---------------------------------------------------------------------------|
D|-3-3-3333-3-3333-3-33/6-6--------------------------------------------------|
A|-3-3-3333-3-3333-3-33/6-6--------------------------------------------------|
E|-1-1-1111-1-1111-1-11/4-4--------------------------------------------------|

************************************

| /   slide up
| \   slide down
| h   hammer-on
| p   pull-off
| ~   vibrato
| +   harmonic
| x   Mute note
| b   Bend
| pb  Pre-bend
| br  Bend release
| pbr Pre-bend release
| brb Bend release bend

************************************
Tap to rate this tab
 
# A B C D E F G H I J K L M N O P Q R S T U V W X Y Z