Song name
# A B C D E F G H I J K L M N O P Q R S T U V W X Y Z

Dmitri Shostakovich - Suite For Jazz Orchestra No 2 tab

Dmitri Shostakovich
Suite for Jazz Orchestra No. 2

This is my first guitar tab :) The original tuning is Cm I think but you could use 
a capo. Enjoy it!
Vincenzo

E|----------------|----------------|----------------|----------------|-0--------------|
B|------1----1----|------1----1----|------1----1----|------1----1----|------1----1----|
G|------2----2----|------2----2----|------2----2----|------2----2----|------2----2----|
D|----------------|----------------|----------------|----------------|----------------|
A|-0--------------|----------------|-0--------------|----------------|-0--------------|
E|----------------|-0--------------|----------------|-0--------------|----------------|


E|----------------|----------------|----------------|----------------|-0---------1----|
B|-1---------0----|------1----1----|-----------0----|-1---------1----|------1---------|
G|------2---------|-2----2----2----|------2----2----|-2----2---------|------2---------|
D|------2---------|----------------|----------------|----------------|----------------|
A|----------------|-0--------------|----------------|-0--------------|----------------|
E|-0--------------|----------------|-0--------------|----------------|-0--------------|


E|-0--------------|----------------|----------------|----------------|----------------|
B|------0----0----|-3--------------|-3--------------|-0--------------|------0----0----|
G|------1----1----|------1----1----|------1----1----|------1----2----|-1----1----1----|
D|----------------|------2----2----|------2----2----|------2---------|----------------|
A|-2--------------|----------------|-2--------------|----------------|-2--------------|
E|----------------|-0--------------|----------------|-0--------------|----------------|


E|----------------|----------------|------0----1----|----------------|-0--------------|
B|----------------|-0---------0----|-3---------0----|-4----1----1----|------1----1----|
G|-----------1----|------1---------|----------------|------2----2----|------2----2----|
D|------2----2----|----------------|----------------|----------------|----------------|
A|----------------|-2--------------|----------------|-0--------------|----------------|
E|-0--------------|----------------|-0--------------|----------------|-0--------------|


E|-8--------------|-7---------5----|-3--------------|-1--------------|-7--------------|
B|------5----5----|------5---------|------3----3----|------3----3----|------3----3----|
G|------5----5----|------5---------|------2----2----|------2----2----|------4----4----|
D|----------------|----------------|-0--------------|-0--------------|----------------|
A|-0--------------|----------------|----------------|----------------|----------------|
E|----------------|-0--------------|----------------|----------------|-3--------------|


E|-5---------3----|-3--------------|----------------|-0--------------------|----------------------|
B|------3---------|------5----5----|------1----3----|------5---3---5---6---|-3----3---1---3---5---|
G|------4---------|------5----5----|------2----2----|----------------------|----------------------|
D|----------------|----------------|----------------|----------------------|----------------------|
A|----------------|-3--------------|----------------|----------------------|----------------------|
E|-3--------------|----------------|-1--------------|-0--------------------|-1--------------------|


E|-----------0----|----------------|-0--------------------|----------------------|
B|-1----1----1----|------1----3----|------5---3---5---6---|-3----3---1---3---5---|
G|------2---------|------2----2----|----------------------|----------------------|
D|----------------|----------------|----------------------|----------------------|
A|----------------|----------------|----------------------|----------------------|
E|-0--------------|-1--------------|-0--------------------|-1--------------------|


E|-----------0----|----------------|-0--------------------|----------------------|
B|-1----1----1----|------1----3----|------5---3---5---6---|-3----3---1---3---5---|
G|------2---------|------2----2----|----------------------|----------------------|
D|----------------|----------------|----------------------|----------------------|
A|----------------|----------------|----------------------|----------------------|
E|-0--------------|-1--------------|-0--------------------|-1--------------------|


E|----------------|----------------|
B|------1----1----|------1----1----|
G|-2----2----2----|------2----2----|
D|----------------|----------------|
A|-0--------------|----------------|
E|----------------|-0--------------|
Tap to rate this tab
 
# A B C D E F G H I J K L M N O P Q R S T U V W X Y Z