Song name
# A B C D E F G H I J K L M N O P Q R S T U V W X Y Z

Dmx - Where The Hood At tab

e--------------------------------------------------------------------------------------|
b-4-2-4--2-0-2-------------------4-2-4---2-0-2-----------------------------------------|
g--------------4-1-4-1-------------------------4-1-4-1---------------------------------|
d--------------------------------------------------------------------------------------|
a--------------------------------------------------------------------------------------|
E--------------------------------------------------------------------------------------|

e-----------------------|
b-4-2-4--2-0-2----------|
g--------------4-1-4-1--|  and just repeat
d-----------------------|  this little thing
a-----------------------|
E-----------------------|


sorry i did not tab whole song   but such a fun riff to play i though it was worth it   
  half step down   =]   enjoy    jake  E
Tap to rate this tab
# A B C D E F G H I J K L M N O P Q R S T U V W X Y Z