Song name
# A B C D E F G H I J K L M N O P Q R S T U V W X Y Z

Dmx - Where The Hood At tab

-----------------------------------------------------------------------------
			     Where The Hood At - DMX
-----------------------------------------------------------------------------
Tabbed by: Dagobert246
Email: dagobert246@gmail.com

Tuning: Drop C

Intro:

C|-----------------------|----------------------|
A|-----------------------|----------------------|
F|-----------------------|------9--------12-----|  2x
C|-----7--------10-------|------9--------12-----|
G|-----7--------10-------|------7--------10-----|
C|-----7--------10-------|----------------------|

C|-----------------------|----------------------|
A|-----------------------|----------------------|
F|-----------------------|----------------------|  
C|-----7--------10-------|------2--------5------|
G|-----7--------10-------|------2--------5------|
C|-----7--------10-------|------2--------5------|

C|-----------------------|---------------------------|
A|-----------------------|---------------------------|
F|-----------------------|------9--------12-12-12-12-|  
C|-----7--------10-------|------9--------12-12-12-12-|
G|-----7--------10-------|------7--------10-10-10-10-|
C|-----7--------10-------|---------------------------|

Main Riff:

C|---------------------------------------------------|
A|---------------------------------------------------|
F|---------------------------------------------------|
C|-----7-------14-12-14---12-10-12---10-7-10---------|
G|-----7---------------------------------------------|
C|-----7---------------------------------------------|


C|---------------------------------------------------|
A|---------------------------------------------------|
F|---------------------------------------------------|
C|-----7-------14-12-14---12-10-12---10-7-10-----7---|
G|-----7-----------------------------------------7---|
C|-----7-----------------------------------------7---|

Bridge:

C|-----------------------|---------------------------|
A|-----------------------|---------------------------|
F|-----------------------|------9--------12-12-12-12-|  
C|-----7--------10-------|------9--------12-12-12-12-|
G|-----7--------10-------|------7--------10-10-10-10-|
C|-----7--------10-------|---------------------------|



| /  slide up
| \  slide down
| h  hammer-on
| p  pull-off
| ~  vibrato
| +  harmonic
| x  Mute note
=============================================================================

That parts are always repeated in the song. Thats my first tab so far!
Tap to rate this tab
# A B C D E F G H I J K L M N O P Q R S T U V W X Y Z