Song name
# A B C D E F G H I J K L M N O P Q R S T U V W X Y Z

Dmx - Get It On The Floor tab

Hey dudes this is my version of "Get it on the floor" It's very easy to play so let's get it on^^

E|-------------------------|
B|-------------------------|
G|-0-0-8-0-7-0-5-0-3-0-7-7-|
D|-------------------------|
A|-------------------------|
E|-------------------------|

E|-------------------------|
B|-------------------------|
G|-0-0-8-0-7-0-5-0-3-0-7-7-|
D|-------------------------|
A|-------------------------|
E|-------------------------|

E|----------------------------|
B|----------------------------|
G|-0-0-8-0-10-0-12-0-10-0-8-8-|
D|----------------------------|
A|----------------------------|
E|----------------------------|

E|-------------------------|
B|-------------------------|
G|-0-0-8-0-7-0-5-0-3-0-7-7-|
D|-------------------------|
A|-------------------------|
E|-------------------------|
Tap to rate this tab
 
# A B C D E F G H I J K L M N O P Q R S T U V W X Y Z