Song name
# A B C D E F G H I J K L M N O P Q R S T U V W X Y Z

Dmx - X Gonna Give It To Ya tab

d|----------------------------------------------------\
a|---------------------------------------------------- \
f|----------------------------------------------------  \
c|----------------------------------------------------   \
g|-----7777-----5555-----3333-----1111----------------    \
d|-9-9------7-7------5-5------3-3---------------------     \
                                                            X2
d|----------------------------------------------------     /
a|----------------------------------------------------    /
f|----------------------------------------------------   /
c|----------------------------------------------------  /
g|---------------------------------------------------- /
d|-9~-------7~-------5~-------3~----------------------/


THIS IS THE REST OF THE SONG
d|----------------------------------------------------
a|----------------------------------------------------
f|----------------------------------------------------
c|----------------------------------------------------
g|-----7777-----5555-----3333-----1111----------------
d|-9-9------7-7------5-5------3-3---------------------

d|----------------------------------------------------
a|----------------------------------------------------
f|----------------------------------------------------
c|----------------------------------------------------
g|----------------------------------------------------
d|-9~-------7~-------5~-------3~----------------------

d|----------------------------------------------------
a|----------------------------------------------------
f|----------------------------------------------------
c|----------------------------------------------------
g|-----7777-----5555-----3333-----1111----------------
d|-9-9------7-7------5-5------3-3---------------------

d|----------------------------------------------------
a|----------------------------------------------------
f|----------------------------------------------------
c|----------------------------------------------------
g|----------------------------------------------------
d|-9~-997~-775~-553~----------------------------------
Tap to rate this tab
# A B C D E F G H I J K L M N O P Q R S T U V W X Y Z