Song name
# A B C D E F G H I J K L M N O P Q R S T U V W X Y Z

Dna71 - Speciale A Modo Mio tab

Dna71 - Speciale a modo mio



Intro

         e|-----------------------------------------------------------------|
         B|-----------------------------------------------7-5---------------|
1°Guitar G|------7-7-6h7p6-------7-7-6h7p6------7-7-6h7p6-----7-6-7~--------|
  --->   D|----------------7-7-------------7-7------------------------------|
         A|-----------------------------------------------------------------|
         E|-----------------------------------------------------------------|

         e|-----------------------------------------------------------------|
         B|-----------------------------------------------------------------|
2°Guitar G|-7-7-------------------------------------------------------------|
  --->   D|-7-7------------7-7-------------9-9------------5-5--5-5-5--------|
         A|-5-5------------7-7-------------9-9------------5-5--5-5-5--------|
         E|----------------5-5-------------7-7------------3-3--3-3-3--------|


         e|-----------------------------------------------------------------|
         B|-----------------------------------------------7-5---------------|
1°Guitar G|------7-7-6h7p6-------7-7-6h7p6------7-7-6h7p6-----7-6-7~--------|
  --->   D|----------------7~--------------7~-------------------------------|
  x2     A|-----------------------------------------------------------------|
         E|-----------------------------------------------------------------|
    
         e|-----------------------------------------------------------------|
         B|-----------------------------------------------------------------|
2°Guitar G|-7-7-7-7-7-7-7---------------------------------------------------|
  --->   D|-7-7-7-7-7-7-7-7-7-7-7-7-7-7-7-9-9-9-9-9-9-9-5-5-5-5-5-5-5-------|
  x2     A|-5-5-5-5-5-5-5-7-7-7-7-7-7-7-7-9-9-9-9-9-9-9-5-5-5-5-5-5-3-------|
         E|---------------5-5-5-5-5-5-5-5-7-7-7-7-7-7-7-3-3-3-3-3-3-3-------|




x - nota stoppata
~ - vibrato
b - bend
s - legato slide/glissato
h - hammer on
p - pull off
T - tapping
P.M. - palm mute




http://www.dna71.it/
Tap to rate this tab
# A B C D E F G H I J K L M N O P Q R S T U V W X Y Z