Song name
# A B C D E F G H I J K L M N O P Q R S T U V W X Y Z

Dnp - Das Manifest tab

-----------------------------------------------------------------------------
                             Das Manifest - DNP
-----------------------------------------------------------------------------
Tabbed by: New Project

Tuning: EADGBE

These are the chords. Feel the rhythm ;).


  D5 G5 D5 A5
|------------| 
|------------|
|-7-----7----|
|-7--5--7--7-|
|-5--5--5--7-|
|----3-----5-| 

  D5 G5 A5 D5
|------------| 
|------------|
|-7--------7-|
|-7--5--7--7-|
|-5--5--7--5-|
|----3--5----| 


There is a second guitar at the end of the last D5 chord.

|------------|
|------------|
|---9-7------|
|-------9-7--|
|------------|
|------------|

Good luck :)!
Tap to rate this tab
# A B C D E F G H I J K L M N O P Q R S T U V W X Y Z