Song name
# A B C D E F G H I J K L M N O P Q R S T U V W X Y Z

Dntel - Why Im So Unhappy tab

This is the intro but this is also played throughout the rest of the song. Sometimes
the last note in paranthesis is present and sometimes the riff goes back only halfway
when it loops again. Just listen to get it all exact.


Standard tuned down 1/2 step.

eb--------------------------------------|
Bb------------------6-5-----------------|
Gb-----------4-5-------------2-----4-5--|
Db--------------------------------------|
Ab-------3------------------------------|
Eb-1--1---------------------------------|

eb---------------------------------------------------|
Bb--------------------------5------------------------|
Gb--------------------2-4-----4(glitch repeat)---(2)-|
Db--------------2------------------------------------|
Ab--------2------------------------------------------|
Eb--0------------------------------------------------|


Thanks to RedTears for the help. Maybe someone besides me actually knows, loves and 
to play this song.

E-mail me if you have any changes or additions: mailbox_1984@yahoo.com
Tap to rate this tab
# A B C D E F G H I J K L M N O P Q R S T U V W X Y Z