Song name
# A B C D E F G H I J K L M N O P Q R S T U V W X Y Z

Do As Infinity - Ever tab

Intro
e--------------------------------------------------------------|
b--------------------------------------------------------------|
g--------------------------------------------------------------|
d---7----------------------------------------------------------|
a--------------8-7-8-------------------------------------------|
e-7---5-8-7-8-7------------------------------------------------|



verse



e--------------------------------------------------------------|
b--------------------------------------------------------------|
g--------------------------------------------------------------|
d--7---------------------------7-------------------------------|
a-----8---888-8-7-8---88-7-88----5-7-888-7-8--88-7-88----------|
e----5--------------5------------------------5-----------------|

bridge

e--------------------------------------------------------------|
b--------------------------------------------------------------|
g--------------------------------------------------------------|
d----------------------7---------------------------------------|
a---878-------878----------8-----------------------------------|
e------------------------5-------------------------------------|

e--------------------------------------------------------------|
b--------------------------------------------------------------|
g---9-------------------------------99-------------------------|
d-----5----77---77--------9--9--------5-77--7------------------|
a--------------------8-7----7-7-88---------5-------------------|
e--------------------------------------------------------------|

chorus

e--------------------------------------------------------------|
b--------------------------------------------------------------|
g--------------------------------------------------------------|
d-----77-7--5--------------------------------------------------|
a-8-----------88-----------------------------------------------|
e--5-7------------5-10--5--8-7---------------------------------|


e--------------------------------------------------------------|
b--------------------------------------------------------------|
g--------------------------------------------------------------|
d---------------------------7----------7-----------------------|
a-----878-------878-----------------8-------8------------------|
e-7-5------5-7------5-7--12---8-7-5-------55-------------------|

e--------------------------------------------------------------|
b--------------------------------------------------------------|
g--------------------------------------------------------------|
d-----77-7--5--------------------------------------------------|
a-8-----------88-----------------------------------------------|
e--5-7------------5-10--5--8-7---------------------------------|


e--------------------------------------------------------------|
b--------------------------------------------------------------|
g--------------------------------------------------------------|
d---------------------------7----------7-----------------------|
a-----878-------878-----------------8-------88-----------------|
e-7-5------5-7------5-7--12---8-7-5-------55-------------------|


ending

e--------------------------------------------------------------|
b--------------------------------------------------------------|
g--------------------------------------------------------------|
d---7----------------------------------------------------------|
a--------------8-7-8-------------------------------------------|
e-7---5-8-7-8-7------------------------------------------------|
Tap to rate this tab
 
# A B C D E F G H I J K L M N O P Q R S T U V W X Y Z