Song name
# A B C D E F G H I J K L M N O P Q R S T U V W X Y Z

Do Make Say Think - Herstory Of Glory tab

Here's a bit of the song

Standard Tuning

----3---|-----|---------|-----|-----0--|-----|----3---|-------|
--5--5--|--2--|----0-0--|--2--|--------|--2--|--0--0--|--2----|
-5-5---o|-1-1-|--0-----o|-1-1-|----0--o|-1-1-|-0-0---o|-1-1---|
-------o|-----|-2-2----o|-----|--2----o|-----|-------o|-------|
--------|-----|---------|-----|-3-3----|-----|--------|-------|
--------|-----|---------|-----|--------|-----|--------|-------|

----3----|----0-|---------|----0-|-----0--|----0-|----3---|----0--|
--5---0--|--2---|----0-0--|--2---|--------|--2---|--0--0--|--2----|
-5-5-5--o|-1-1--|--0-----o|-1-1--|----0--o|-1-1--|-0-0---o|-1-1---|
--------o|------|-2-2----o|------|--2----o|------|-------o|-------|
---------|------|---------|------|-3-3----|------|--------|-------|
---------|------|---------|------|--------|------|--------|-------|

-------------------------------------------------------|
-1--3--5---8-8--3---1--6--5-3--------------------------|
-2--4--5---9-9--4---2-----5-4--------------------------|
-----------------------7-------------------------------|
-------------------------------------------------------|
-------------------------------------------------------|

-------------------------------------------------------|
-----0----------------8-5-0----------------------------|
-7-5-4-------0--------7-5-4--4----0--------------------|
-9-7-5--5-5--5-4------9-7-5--5-5--5-4------------------|
----------7--7-5---------------7--7-5------------------|
-------------------------------------------------------|
Tap to rate this tab
# A B C D E F G H I J K L M N O P Q R S T U V W X Y Z