Song name
# A B C D E F G H I J K L M N O P Q R S T U V W X Y Z

Do Make Say Think - In Mind tab

-------------------------------------------
      do make say think - in mind
-------------------------------------------
tabbed by anthony_kaitse@hotmail.com

its just the main riff that plays out through
most of the tune. just hold the shape and slide 
up and down between frets. standard tuning.

e|----------------------------------------|
B|-------0---------0---------0---------0--|
G|---6---------6---------6---------6------|
D|-----7---------7---------7---------7----|
A|-7---------7---------7---------7--------|
E|----------------------------------------|


e|----------------------------------------|
B|-------0---------0---------0---------0--|
G|---1---------1---------1---------1------|
D|-----2---------2---------2---------2----|
A|-2---------2---------2---------2--------|
E|----------------------------------------|



e|-----------------0----------------------|
B|-------0-------------------0---------0--|
G|---6---------6---------6--------6-------|
D|-----7---------7---------7--------7-----|
A|-7---------7---------7--------7---------|
E|----------------------------------------|

e|----------------------------------------|
B|-------0---------0---------0---------0--|
G|---1---------1---------1---------1------|
D|-----2---------2---------2---------2----|
A|-2---------2---------2---------2--------|
E|----------------------------------------|

===========================================


Tap to rate this tab
 
# A B C D E F G H I J K L M N O P Q R S T U V W X Y Z