Song name
# A B C D E F G H I J K L M N O P Q R S T U V W X Y Z

Do Make Say Think - Classic Noodlanding tab

-----------------------------------------------------------------------------
			Classic Noodlanding - Do Make Say Think
-----------------------------------------------------------------------------
Tabbed by: David K.
Email: thischarmingman13@gmail.com

I didn't bother with the deviations since it's an easy song, but this is the gist of it.

Listen for the rhythm, lots of soft/loud dynamic used here
e|---2-----------------------------------------------------------------------|
B|-----3---3---3------3---3---3---3------------------------------------------|
G|-4-----4---4---4--3---3---3---0--------------------------------------------|
D|---------------------------------------------------------------------------|
A|---------------------------------------------------------------------------|
E|---------------------------------------------------------------------------|
Just before the main part
e|---2-------2---------------------------------------------------------------|
B|-----3-------3-------------------------------------------------------------|
G|-4-------0-----------------------------------------------------------------|
D|---------------------------------------------------------------------------|
A|---------------------------------------------------------------------------|
E|---------------------------------------------------------------------------|

e|---------------------------------------------------------------------------|
B|---------------------------------------------------------------------------|
G|-----------4------------4------------4-------------------------------------|
D|---5---5--------5---5--------5---5-----------------------------------------|
A|-5---5---5----5---5---5----5---5---5----222222-----------------------------|
E|----------------------------------------------000--333---------------------|
Tap to rate this tab
 
# A B C D E F G H I J K L M N O P Q R S T U V W X Y Z