Song name
# A B C D E F G H I J K L M N O P Q R S T U V W X Y Z

Do Make Say Think - Hooray Hooray Hooray tab

Song: Hooray! Hooray! Hooray!
Artist: Do Make Say Think
Album: Winter Hymn Country Hymn Secret Hymn
Tuning: Standard
Tabbed by: Nathan Zwiener

This is just the progression that goes through out the song, repeating over
and over. For some reason it doesn't get repetitive, though. It's just nice.
The rest of the nonsense that's going on shouldn't be too difficult to 
figure out if you really want to figure it out, haha.

Enjoy! Give it 5 stars!

|-------7-------7-------7-------7-|
|---------------------------------|
|---0-------0-------0-------0-----|
|-5---5---5---5---5---5---5---5---|
|---------------------------------|
|---------------------------------|

|-------2-------2-------2-------2-|
|---------------------------------|
|---------------------------------|
|---0-------0-------0-------0-----|
|-2---2---2---2---2---2---2---2---|
|---------------------------------|

|---------------2-----------------|
|-------3---------------3-------3-|
|---------------------------------|
|---2-------2-------2-------2-----|
|-3---3---3---3---3---3---3---3---|
|---------------------------------|

|---------------2-----------------|
|-------3---------------3-------3-|
|---0-------0-------0-------0-----|
|-5---5---5---5---5---5---5---5---|
|---------------------------------|
|---------------------------------|

|---------------2-------0---------|
|-------3-------------------3-----|
|---------------------------------|
|---2-------2-------2-----------0-|
|-3---3---3---3---3---3---3---3---|
|---------------------------------|

|---------------------------------|
|-------------------0-------------|
|-------5-------7-----------5~~~--|
|---0-------0-----0-----0---------|
|-5---5---5---5-------5---5-------|
|---------------------------------|

"Think we should play it again?"
Tap to rate this tab
# A B C D E F G H I J K L M N O P Q R S T U V W X Y Z