Song name
# A B C D E F G H I J K L M N O P Q R S T U V W X Y Z

Do Make Say Think - Hooray Hooray Hooray tab

Do Make Say Think - Hooray Hooray Hooray


Tabbed by: Nick Verveniotis


Tuning: Standard

* This song is fingerpicked. 




e|---------------------------------------------|
B|---------12---------12---------12---------12-|
G|----0----------0----------0----------0-------|
D|------12---------12---------12---------12----|
A|-10---------10---------10---------10---------|
E|---------------------------------------------|

e|---------------------------------|
B|-------7-------7-------7-------7-|
G|---0-------0-------0-------0-----|
D|-----7-------7-------7-------7---|
A|-7-------7-------7-------7-------|
E|---------------------------------|

e|---------------2-----------------|
B|-------3---------------3-------3-|
G|---0-------0-------0-------0-----|
D|-----2-------2-------2-------2---|
A|-3-------3-------3-------3-------|
E|---------------------------------|

e|---------------2-----------------|
B|-------3---------------3-------3-|
G|---0-------0-------0-------0-----|
D|-----0-------0-------0-------0---|
A|---------2---------------2-------|
E|-3---------------3---------------|

e|---------------2------0----------|
B|-------3------------------3------|
G|---0-------0------0-----------0--|
D|-----2-------2------2-------2----|
A|-3-------3------3-------3--------|
E|---------------------------------|

e|-----------------------------|
B|---------------3---0---------|
G|-------5-------------------5-|
D|---4-------4-----------4-----|
A|-5---5---5---5---5---5---5---|
E|-----------------------------|


Tap to rate this tab
# A B C D E F G H I J K L M N O P Q R S T U V W X Y Z