Song name
# A B C D E F G H I J K L M N O P Q R S T U V W X Y Z

Do Make Say Think - Soul And Onward tab

This is from their 2002 album & Yet & Yet.  Listen to the changes and rhythm to figure 
how its played.


    Main pattern (slight tremelo and OD)
d#|---------------------------------------------------------|
A#|---------------------------------------------------------|
G |---0---0---0---3---3--/5---0---1---0-----0-----0-----0---|
C#|-------------------------------------0-----0-----0-----0-|
G#|---------------------------------------0-----2-----4-----|
D#|-0---0---0---0---0---0---0---0---0-----------------------|


   Bridge
d#|---------|
A#|---------|
G |---0---0-|
C#|-3---3---|
G#|---------|
D#|---------|

d#|-----------------------------------------------------------------|
A#|-----------------------------------------------------------------|
G |-------0-------0-------0-------0---------------------------------|
C#|---0-------0-------2-------2-----------0-------0-------0-------0-|
G#|-2---2---2---2---0---0---0---0-----0-------0-------0-------0-----|
D#|---------------------------------0---0---0---0---0---0---0---0---|

d#|--------------------------------------------------------------------|
A#|--------------------------------------------------------------------|
G |-------7--------7--------7--------0-------5-------0-------0-------7-|
C#|---7--------7--------7--------7-------5-------5-------5-------5-----|
G#|-7---7----7---7----7---7----7---7---5---5---5---5---5---5---5---5---|
D#|--------------------------------------------------------------------|


    Last pattern
d#|-------------|
A#|-0-----0-----|
G |---5-5-------|
C#|-------------|
G#|-----4-------|
D#|---------5-0-|


                               end
d#|-------------------------------|  (0)
A#|-------------------------------|  (0)
G |-------0-----5------5----------|  (0)
C#|-----5---------0---------------|  (0)
G#|-0h2-----2/5------4------------|  (0)
D#|----------------------5-0-   0-|

Please send questions or comments to ewaki0@hotmail.com
Tap to rate this tab
 
# A B C D E F G H I J K L M N O P Q R S T U V W X Y Z