Song name
# A B C D E F G H I J K L M N O P Q R S T U V W X Y Z

Do Make Say Think - Auberge Le Mouton Noir tab

-------------------------------------------------------------------------------
		   Auberege Le Mouton Noir - Do Make Say Think
-------------------------------------------------------------------------------
Tabbed by: malectro
Email: malectro@gmail.com

i love this song to death so i learned every bit of it that i could. DMST is
is historically a jam band so go ahead and add some more arpeggiations and
the like where you see fit.


Tuning: standard

Intro                                    (alternate last chord)
e|---------------------------------------(-----)--|
B|-1---0-1-----------------------------0-(-----)--|
G|-2-----2---0-0--------0----0---0-----0-(---0-)--|
D|-2-----3-----2--------5---5h7------3-2-(---5-)--|
A|-0-----0-----3--------7----8---------3-(-8-7-)--|
E|----------------------7----8-----------(---8-)--|
   a     F     C        e    F         C     C

Main Riff (repeats)
e|----------------------------------|
B|----------------------------------|
G|------0-------0-------0-----------|
D|---0h2----0h2-----0h2-----------0-|
A|-3------3-------3-----------------|
E|------------------------3---------|

Lead Line (plays over riff)
e|--------------------------------|
B|-10--8--5--15--13--5--8--0--8---|
G|----------------------------9---|
D|----------------------------10--|
A|--------------------------------|
E|--------------------------------|

Arpeggiated Lead Line
e|----7----7----7---5---5---5---8---8---8----12----12----12----12----12----12|
B|-10---10---10---8---8---8---9---9---9---15----15----15----13----13----13---|
G|---------------------------------------------------------------------------|
D|---------------------------------------------------------------------------|
A|---------------------------------------------------------------------------|
E|---------------------------------------------------------------------------|

e|---5---5---5-------------------------------------------------|
B|-5---5---5-----5---5---5---5---5---5---5---5---5---5---5---5-|
G|-------------5---5---5---------------5---5---5---------------|
D|-------------------------5---7---5---------------5---7---5---|
A|-------------------------------------------------------------|
E|-------------------------------------------------------------|

e|-----------------|
B|-0---1---0-1-----|
G|-----2-----2-----|
D|-----2-----3-----|
A|-----0-----0-----|
E|-----------------|

Fast Lead Line
e|----0---0---0---0---0---0----0---0---0---0---0---0---0---0---0---0---0-|
B|-10---8---6---5---5---5---10---8---5---8-------------------6---6---6---|
G|-------------------------------------------7---5---5---5---------------|
D|-----------------------------------------------------------------------|
A|-----------------------------------------------------------------------|
E|-----------------------------------------------------------------------|

e|----12----12----12----12----12----12----12----12----12-|
B|-15----15----15----13----13----13----15----15----15----|
G|-------------------------------------------------------|
D|-------------------------------------------------------|
A|-------------------------------------------------------|
E|-------------------------------------------------------|

Fast Lead Line 2
e|----0---0---0---0---0---0---0---0---0---0---0---0-|
B|--6---5---5---6---5---5---6---5---5---6---5---5---|
G|--------------------------------------------------|
D|--------------------------------------------------|
A|--------------------------------------------------|
E|--------------------------------------------------|

e|----0---0---0---0---0---0---0---0---0---0---0---0-|
B|--------------------------------------------------|
G|--7---7---7---7---7---7---------------------------|
D|--------------------------7---7---7---7---7---7---|
A|--------------------------------------------------|
E|--------------------------------------------------|


| /  slide up
| \  slide down
| h  hammer-on
| p  pull-off
| ~  vibrato
| +  harmonic
| x  Mute note
===============================================================================
Tap to rate this tab
# A B C D E F G H I J K L M N O P Q R S T U V W X Y Z